999
DXF file: C:\Aktuell-Internet\CAD-Daten\2rm-m24.dxf
999
Pro/ENGINEER 2001400 by Parametric Technology Corporation
0
SECTION
2
HEADER
9
$ACADVER
1
AC1014
9
$EXTMAX
10
420.0000000000
20
297.0000000000
9
$EXTMIN
10
0.0000000000
20
0.0000000000
9
$LIMMIN
10
0.0000000000
20
0.0000000000
9
$LIMMAX
10
420.0000000000
20
297.0000000000
9
$VIEWCTR
10
210.0000000000
20
148.5000000000
9
$VIEWSIZE
40
297.0000000000
9
$CLAYER
8
0
9
$LTSCALE
40
23.1000000000
9
$CELTYPE
6
BYLAYER
9
$DIMSCALE
40
1
9
$DIMASZ
40
3.5000000000
9
$DIMEXO
40
2.6250000000
9
$DIMDLI
40
15.9600000000
9
$DIMEXE
40
7.5600000000
9
$DIMCEN
40
3.7800000000
9
$DIMLFAC
40
1.0000000000
9
$DIMTXT
40
3.5000000000
9
$DIMTOL
70
1
9
$DIMTFAC
40
0.6000000000
9
$DIMTP
40
0.0050000000
9
$DIMTM
40
0.0050000000
9
$HANDSEED
5
384
0
ENDSEC
0
SECTION
2
CLASSES
0
ENDSEC
0
SECTION
2
TABLES
0
TABLE
2
VPORT
5
8
100
AcDbSymbolTable
70
2
0
VPORT
5
1F4
100
AcDbSymbolTableRecord
100
AcDbViewportTableRecord
2
*ACTIVE
70
0
10
0.0
20
0.0
11
1.0
21
1.0
12
210.0000000000
22
148.5000000000
13
0.0
23
0.0
14
1.0
24
1.0
15
0.0
25
0.0
16
0.0
26
0.0
36
1.0
17
0.0
27
0.0
37
0.0
40
297.0000000000
41
1.4141414141
42
50.0
43
0.0
44
0.0
50
0.0
51
0.0
71
0
72
100
73
1
74
1
75
0
76
0
77
0
78
0
0
ENDTAB
0
TABLE
2
LTYPE
5
5
100
AcDbSymbolTable
70
6
0
LTYPE
5
14
100
AcDbSymbolTableRecord
100
AcDbLinetypeTableRecord
2
BYBLOCK
70
0
3

72
65
73
0
40
0.0
0
LTYPE
5
15
100
AcDbSymbolTableRecord
100
AcDbLinetypeTableRecord
2
BYLAYER
70
0
3

72
65
73
0
40
0.0
0
LTYPE
5
16
100
AcDbSymbolTableRecord
100
AcDbLinetypeTableRecord
2
CONTINUOUS
70
64
3
Solid line
72
65
73
0
40
0
0
LTYPE
5
1F5
100
AcDbSymbolTableRecord
100
AcDbLinetypeTableRecord
2
CENTER
70
64
3
____ _ ____ _ ____ _ ____ _ ____ _ ____ _ ____
72
65
73
4
40
0.6
49
0.375
74
0
49
-0.075
74
0
49
0.075
74
0
49
-0.075
74
0
0
LTYPE
5
1F6
100
AcDbSymbolTableRecord
100
AcDbLinetypeTableRecord
2
HIDDEN
70
64
3
- - - - - - - - - - - - - - - - - - - -
72
65
73
2
40
0.2
49
0.1
74
0
49
-0.1
74
0
0
LTYPE
5
1F7
100
AcDbSymbolTableRecord
100
AcDbLinetypeTableRecord
2
PHANTOM
70
64
3
_____ _ _ _____ _ _ _____ _ _ _____
72
65
73
6
40
0.8
49
0.45
74
0
49
-0.05
74
0
49
0.1
74
0
49
-0.05
74
0
49
0.1
74
0
49
-0.05
74
0
0
LTYPE
5
1F8
100
AcDbSymbolTableRecord
100
AcDbLinetypeTableRecord
2
DOT
70
64
3
. . . . . . . . . . . . . . . . . . . .
72
65
73
2
40
0.2
49
0.1
74
0
49
-0.1
74
0
0
LTYPE
5
1F9
100
AcDbSymbolTableRecord
100
AcDbLinetypeTableRecord
2
DASHED
70
64
3
- - - - - - - - - - - - - - - - - - - -
72
65
73
2
40
0.2
49
0.1
74
0
49
-0.1
74
0
0
ENDTAB
0
TABLE
2
LAYER
5
2
100
AcDbSymbolTable
70
36
0
LAYER
5
10
100
AcDbSymbolTableRecord
100
AcDbLayerTableRecord
2
0
70
0
62
7
6
CONTINUOUS
0
LAYER
5
1FA
100
AcDbSymbolTableRecord
100
AcDbLayerTableRecord
2
DEFAULT_1
70
0
62
7
6
CENTER
0
LAYER
5
1FB
100
AcDbSymbolTableRecord
100
AcDbLayerTableRecord
2
DEFAULT_2
70
0
62
8
6
HIDDEN
0
LAYER
5
1FC
100
AcDbSymbolTableRecord
100
AcDbLayerTableRecord
2
DEFAULT_3
70
0
62
7
6
PHANTOM
0
ENDTAB
0
TABLE
2
STYLE
5
3
100
AcDbSymbolTable
70
1
0
STYLE
5
11
100
AcDbSymbolTableRecord
100
AcDbTextStyleTableRecord
2
STANDARD
70
0
40
0.0
41
1.0
50
0.0
71
0
42
0.0
3
txt
4

0
STYLE
5
1FD
100
AcDbSymbolTableRecord
100
AcDbTextStyleTableRecord
2
TEXTSTYLE_0
70
0
40
0.0
41
0.80
50
0.0
71
0
42
0.2
3
txt
4

0
ENDTAB
0
TABLE
2
VIEW
5
6
100
AcDbSymbolTable
70
0
0
ENDTAB
0
TABLE
2
UCS
5
7
100
AcDbSymbolTable
70
0
0
ENDTAB
0
TABLE
2
APPID
5
9
100
AcDbSymbolTable
70
1
0
APPID
5
1FE
100
AcDbSymbolTableRecord
100
AcDbRegAppTableRecord
2
ACAD
70
0
0
ENDTAB
0
TABLE
2
DIMSTYLE
5
A
100
AcDbSymbolTable
70
1
0
DIMSTYLE
105
1FF
100
AcDbSymbolTableRecord
100
AcDbDimStyleTableRecord
2
STANDARD
70
0
3

4

5

6

7

40
1.0
41
0.18
42
0.0625
43
0.38
44
0.18
45
0.0
46
0.0
47
0.0050000000
48
0.0050000000
140
3.5000000000
141
0.09
142
0.0
143
25.4
144
1.0000000000
145
0.0
146
0.6000000000
147
0.09
71
1
72
0
73
1
74
1
75
0
76
0
77
0
78
0
170
0
171
2
172
0
173
0
174
0
175
0
176
0
177
0
178
0
270
2
271
3
272
4
273
2
274
2
340
11
275
0
280
0
281
0
282
0
283
1
284
0
285
0
286
0
287
3
288
0
0
ENDTAB
0
TABLE
2
BLOCK_RECORD
5
1
100
AcDbSymbolTable
70
0
0
BLOCK_RECORD
5
1B
100
AcDbSymbolTableRecord
100
AcDbBlockTableRecord
2
*MODEL_SPACE
0
BLOCK_RECORD
5
1C
100
AcDbSymbolTableRecord
100
AcDbBlockTableRecord
2
*PAPER_SPACE
0
ENDTAB
0
ENDSEC
0
SECTION
2
BLOCKS
0
BLOCK
5
1E
100
AcDbEntity
8
0
100
AcDbBlockBegin
2
*MODEL_SPACE
70
0
10
0.0
20
0.0
30
0.0
3
*MODEL_SPACE
1

0
ENDBLK
5
1F
100
AcDbEntity
8
0
100
AcDbBlockEnd
0
BLOCK
5
20
100
AcDbEntity
8
0
100
AcDbBlockBegin
2
*PAPER_SPACE
70
0
10
0.0
20
0.0
30
0.0
3
*PAPER_SPACE
1

0
ENDBLK
5
21
100
AcDbEntity
8
0
100
AcDbBlockEnd
0
ENDSEC
0
SECTION
2
ENTITIES
0
TEXT
5
200
100
AcDbEntity
8
0
100
AcDbText
62
2
6
CONTINUOUS
10
77.7900026663
20
114.5036161353
7
TEXTSTYLE_0
40
5.0000000000
1
RUD
72
5
11
90.1709550472
21
114.5036161353
100
AcDbText
0
TEXT
5
201
100
AcDbEntity
8
0
100
AcDbText
62
2
6
CONTINUOUS
10
69.6621307042
20
105.2089951792
7
TEXTSTYLE_0
40
5.0000000000
1
RM M24
72
5
11
93.9478449900
21
105.2089951792
100
AcDbText
0
TEXT
5
202
100
AcDbEntity
8
0
100
AcDbText
62
2
6
CONTINUOUS
10
292.1490100959
20
188.6984287844
7
TEXTSTYLE_0
40
5.0000000000
1
RUD
50
90.0000000000
72
5
11
292.1490100959
21
201.0793811654
100
AcDbText
0
TEXT
5
203
100
AcDbEntity
8
0
100
AcDbText
62
2
6
CONTINUOUS
10
303.0620467522
20
189.0015686916
7
TEXTSTYLE_0
40
5.0000000000
1
RM M24
50
90.0000000000
72
5
11
303.0620467522
21
213.2872829773
100
AcDbText
0
LINE
5
204
100
AcDbEntity
8
0
100
AcDbLine
62
7
6
CONTINUOUS
10
0.0000000000
20
0.0000000000
11
0.0000000000
21
297.0000000000
0
LINE
5
205
100
AcDbEntity
8
0
100
AcDbLine
62
7
6
CONTINUOUS
10
0.0000000000
20
0.0000000000
11
420.0000000000
21
0.0000000000
0
LINE
5
206
100
AcDbEntity
8
0
100
AcDbLine
62
7
6
CONTINUOUS
10
0.0000000000
20
297.0000000000
11
420.0000000000
21
297.0000000000
0
LINE
5
207
100
AcDbEntity
8
0
100
AcDbLine
62
7
6
CONTINUOUS
10
420.0000000000
20
0.0000000000
11
420.0000000000
21
297.0000000000
0
LINE
5
208
100
AcDbEntity
8
0
100
AcDbLine
62
7
6
CONTINUOUS
10
86.5188218943
20
167.6453046988
11
86.0188218943
21
168.1453046988
0
LINE
5
209
100
AcDbEntity
8
0
100
AcDbLine
62
7
6
CONTINUOUS
10
65.1100079528
20
213.6760384283
11
77.4739960398
21
243.5253461528
0
LINE
5
20A
100
AcDbEntity
8
0
100
AcDbLine
62
7
6
CONTINUOUS
10
86.5188218943
20
167.6453046988
11
135.5188218943
21
167.6453046988
0
LINE
5
20B
100
AcDbEntity
8
0
100
AcDbLine
62
7
6
CONTINUOUS
10
86.0188218943
20
168.1453046988
11
136.0188218943
21
168.1453046988
0
LINE
5
20C
100
AcDbEntity
8
DEFAULT_2
100
AcDbLine
62
8
6
HIDDEN
10
99.0188218943
20
169.1453046988
11
123.0188218943
21
169.1453046988
0
LINE
5
20D
100
AcDbEntity
8
0
100
AcDbLine
62
7
6
CONTINUOUS
10
77.7244953690
20
180.1605043669
11
65.1100079528
21
210.6145709694
0
LINE
5
20E
100
AcDbEntity
8
0
100
AcDbLine
62
7
6
CONTINUOUS
10
72.4478532664
20
219.9522152137
11
72.4480363718
21
219.7457285117
0
LINE
5
20F
100
AcDbEntity
8
0
100
AcDbLine
62
7
6
CONTINUOUS
10
75.8593294016
20
231.9206800650
11
75.7605287424
21
231.4809980582
0
LINE
5
210
100
AcDbEntity
8
0
100
AcDbLine
62
7
6
CONTINUOUS
10
70.9348146311
20
220.3192501258
11
70.3409044138
21
218.9200830649
0
LINE
5
211
100
AcDbEntity
8
0
100
AcDbLine
62
7
6
CONTINUOUS
10
75.2406732432
20
230.4632139396
11
75.0179559580
21
229.9385252189
0
LINE
5
212
100
AcDbEntity
8
0
100
AcDbLine
62
7
6
CONTINUOUS
10
74.2755662791
20
228.1895666312
11
74.0528489939
21
227.6648788642
0
LINE
5
213
100
AcDbEntity
8
0
100
AcDbLine
62
7
6
CONTINUOUS
10
72.6670572153
20
224.4001550864
11
72.4443399302
21
223.8754673194
0
LINE
5
214
100
AcDbEntity
8
0
100
AcDbLine
62
7
6
CONTINUOUS
10
71.7019502512
20
222.1265077781
11
71.4792329661
21
221.6018200110
0
LINE
5
215
100
AcDbEntity
8
0
100
AcDbLine
62
7
6
CONTINUOUS
10
75.9583131663
20
232.1538744162
11
75.8593294016
21
231.9206800650
0
LINE
5
216
100
AcDbEntity
8
0
100
AcDbLine
62
7
6
CONTINUOUS
10
77.2698671213
20
235.2437029074
11
77.1213914744
21
234.8939104270
0
LINE
5
217
100
AcDbEntity
8
0
100
AcDbLine
62
7
6
CONTINUOUS
10
70.8614999644
20
219.1119198989
11
71.3316804758
21
220.2195940207
0
LINE
5
218
100
AcDbEntity
8
0
100
AcDbLine
62
7
6
CONTINUOUS
10
76.2067033640
20
231.7044267844
11
76.3056871287
21
231.9376211356
0
LINE
5
219
100
AcDbEntity
8
0
100
AcDbLine
62
7
6
CONTINUOUS
10
76.2820512644
20
230.6404009055
11
76.4057809702
21
230.9318933677
0
LINE
5
21A
100
AcDbEntity
8
0
100
AcDbLine
62
7
6
CONTINUOUS
10
76.1812173716
20
232.4720754813
11
75.9583131663
21
232.1538744162
0
LINE
5
21B
100
AcDbEntity
8
0
100
AcDbLine
62
7
6
CONTINUOUS
10
76.3056871287
20
231.9376211356
11
76.5038415781
21
232.1975221824
0
LINE
5
21C
100
AcDbEntity
8
0
100
AcDbLine
62
7
6
CONTINUOUS
10
91.3130037180
20
247.8199186515
11
90.9062139384
21
247.4745016288
0
LINE
5
21D
100
AcDbEntity
8
0
100
AcDbLine
62
7
6
CONTINUOUS
10
91.5728113047
20
247.9699201773
11
91.3130037180
21
247.8199186515
0
LINE
5
21E
100
AcDbEntity
8
0
100
AcDbLine
62
7
6
CONTINUOUS
10
91.4874135844
20
247.3678312491
11
91.7472211710
21
247.5178327750
0
LINE
5
21F
100
AcDbEntity
8
0
100
AcDbLine
62
7
6
CONTINUOUS
10
94.2461873881
20
248.7394972037
11
93.9214269511
21
248.5519972037
0
LINE
5
220
100
AcDbEntity
8
0
100
AcDbLine
62
7
6
CONTINUOUS
10
90.8003694407
20
246.3078298758
11
91.1251298777
21
246.4953298758
0
LINE
5
221
100
AcDbEntity
8
0
100
AcDbLine
62
7
6
CONTINUOUS
10
95.3436366907
20
248.4886579703
11
94.6291658274
21
248.0761594962
0
LINE
5
222
100
AcDbEntity
8
0
100
AcDbLine
62
7
6
CONTINUOUS
10
94.3044053904
20
247.8886594962
11
93.7847902170
21
247.5886602591
0
LINE
5
223
100
AcDbEntity
8
0
100
AcDbLine
62
7
6
CONTINUOUS
10
79.6387804404
20
245.6901305534
11
109.4880881648
21
258.0541186403
0
LINE
5
224
100
AcDbEntity
8
0
100
AcDbLine
62
7
6
CONTINUOUS
10
92.0103952280
20
248.1120023917
11
91.5728113047
21
247.9699201773
0
LINE
5
225
100
AcDbEntity
8
0
100
AcDbLine
62
7
6
CONTINUOUS
10
76.1573945872
20
231.3813409995
11
76.2067033640
21
231.7044267844
0
LINE
5
226
100
AcDbEntity
8
0
100
AcDbLine
62
7
6
CONTINUOUS
10
72.4480363718
20
219.7457285117
11
71.9778558604
21
218.6380543898
0
LINE
5
227
100
AcDbEntity
8
0
100
AcDbLine
62
7
6
CONTINUOUS
10
72.4244005076
20
218.4485082816
11
72.8450853220
21
219.4395852279
0
LINE
5
228
100
AcDbEntity
8
0
100
AcDbLine
62
7
6
CONTINUOUS
10
79.5267736307
20
234.9737310599
11
79.2793104044
21
234.3907442283
0
LINE
5
229
100
AcDbEntity
8
0
100
AcDbLine
62
7
6
CONTINUOUS
10
79.1308328501
20
234.0409536551
11
78.7101480356
21
233.0498762320
0
LINE
5
22A
100
AcDbEntity
8
0
100
AcDbLine
62
7
6
CONTINUOUS
10
78.9834634653
20
232.4522390555
11
79.5773755900
21
233.8514070700
0
LINE
5
22B
100
AcDbEntity
8
0
100
AcDbLine
62
7
6
CONTINUOUS
10
79.7258531443
20
234.2011976432
11
79.9733163706
21
234.7841844748
0
LINE
5
22C
100
AcDbEntity
8
0
100
AcDbLine
62
7
6
CONTINUOUS
10
79.4553090922
20
231.7015314292
11
78.7624132029
21
230.0691690635
0
LINE
5
22D
100
AcDbEntity
8
0
100
AcDbLine
62
7
6
CONTINUOUS
10
80.6193086497
20
233.4091329764
11
80.7677881113
21
233.7589235495
0
LINE
5
22E
100
AcDbEntity
8
0
100
AcDbLine
62
7
6
CONTINUOUS
10
78.5901109568
20
228.6286440085
11
78.7385904185
21
228.9784364890
0
LINE
5
22F
100
AcDbEntity
8
0
100
AcDbLine
62
7
6
CONTINUOUS
10
78.0456926218
20
227.3460731696
11
78.2436639658
21
227.8124628257
0
LINE
5
230
100
AcDbEntity
8
0
100
AcDbLine
62
7
6
CONTINUOUS
10
77.5507661692
20
226.1801004599
11
77.6992456309
21
226.5298929404
0
LINE
5
231
100
AcDbEntity
8
0
100
AcDbLine
62
7
6
CONTINUOUS
10
78.9365617625
20
229.4448251914
11
79.8274270884
21
231.5435762595
0
LINE
5
232
100
AcDbEntity
8
0
100
AcDbLine
62
7
6
CONTINUOUS
10
75.4720765940
20
221.2830152701
11
75.6700479380
21
221.7494039725
0
LINE
5
233
100
AcDbEntity
8
0
100
AcDbLine
62
7
6
CONTINUOUS
10
76.0164949290
20
222.5655851554
11
76.1649743906
21
222.9153766822
0
LINE
5
234
100
AcDbEntity
8
0
100
AcDbLine
62
7
6
CONTINUOUS
10
74.6059572092
20
219.2425627898
11
74.7791826121
21
219.6506529044
0
LINE
5
235
100
AcDbEntity
8
0
100
AcDbLine
62
7
6
CONTINUOUS
10
74.9771501414
20
220.1170420836
11
75.1256296030
21
220.4668340873
0
LINE
5
236
100
AcDbEntity
8
0
100
AcDbLine
62
7
6
CONTINUOUS
10
73.8388215891
20
217.4353046607
11
73.9873010508
21
217.7850966643
0
LINE
5
237
100
AcDbEntity
8
0
100
AcDbLine
62
7
6
CONTINUOUS
10
71.1329690806
20
220.5791521262
11
70.9348146311
21
220.3192501258
0
LINE
5
238
100
AcDbEntity
8
0
100
AcDbLine
62
7
6
CONTINUOUS
10
91.2105275980
20
247.0974149894
11
91.4874135844
21
247.3678312491
0
LINE
5
239
100
AcDbEntity
8
0
100
AcDbLine
62
7
6
CONTINUOUS
10
76.4290506235
20
232.6420870017
11
76.1812173716
21
232.4720754813
0
LINE
5
23A
100
AcDbEntity
8
0
100
AcDbLine
62
7
6
CONTINUOUS
10
94.8206540934
20
247.7444906424
11
95.5351259104
21
248.1569891166
0
LINE
5
23B
100
AcDbEntity
8
0
100
AcDbLine
62
7
6
CONTINUOUS
10
93.9762803904
20
247.2569914054
11
94.4958955637
21
247.5569906424
0
LINE
5
23C
100
AcDbEntity
8
0
100
AcDbLine
62
7
6
CONTINUOUS
10
94.5577279917
20
245.0498914908
11
92.7390748850
21
243.9998922538
0
LINE
5
23D
100
AcDbEntity
8
0
100
AcDbLine
62
7
6
CONTINUOUS
10
92.4588224283
20
243.2853040885
11
94.7970907084
21
244.6353063773
0
LINE
5
23E
100
AcDbEntity
8
0
100
AcDbLine
62
7
6
CONTINUOUS
10
108.4954885832
20
251.4570074271
11
108.2804886690
21
251.3655157279
0
LINE
5
23F
100
AcDbEntity
8
0
100
AcDbLine
62
7
6
CONTINUOUS
10
96.3080636851
20
245.6182203482
11
96.7456476084
21
245.7603063773
0
LINE
5
240
100
AcDbEntity
8
0
100
AcDbLine
62
7
6
CONTINUOUS
10
111.5054885737
20
249.5357313346
11
111.2188218973
21
249.4442396354
0
LINE
5
241
100
AcDbEntity
8
0
100
AcDbLine
62
7
6
CONTINUOUS
10
72.8447191111
20
219.8525591086
11
72.7948533884
21
220.1489353370
0
LINE
5
242
100
AcDbEntity
8
0
100
AcDbLine
62
7
6
CONTINUOUS
10
91.1114160410
20
246.8190794181
11
91.2105275980
21
247.0974149894
0
LINE
5
243
100
AcDbEntity
8
0
100
AcDbLine
62
7
6
CONTINUOUS
10
90.9062139384
20
247.4745016288
11
90.7421495310
21
247.1586675834
0
LINE
5
244
100
AcDbEntity
8
0
100
AcDbLine
62
7
6
CONTINUOUS
10
71.3316804758
20
220.2195940207
11
71.4803430430
21
220.3628988456
0
LINE
5
245
100
AcDbEntity
8
0
100
AcDbLine
62
7
6
CONTINUOUS
10
108.5671553007
20
250.9995603751
11
108.8538219324
21
251.1825399588
0
LINE
5
246
100
AcDbEntity
8
0
100
AcDbLine
62
7
6
CONTINUOUS
10
111.5771552316
20
248.9867925834
11
111.8638219229
21
249.1697721671
0
LINE
5
247
100
AcDbEntity
8
0
100
AcDbLine
62
7
6
CONTINUOUS
10
76.5038415781
20
232.1975221824
11
76.7269288889
21
232.3092374991
0
LINE
5
248
100
AcDbEntity
8
0
100
AcDbLine
62
7
6
CONTINUOUS
10
114.9454886309
20
249.5357313346
11
114.6588219992
21
249.4442396354
0
LINE
5
249
100
AcDbEntity
8
0
100
AcDbLine
62
7
6
CONTINUOUS
10
142.9273291208
20
179.2345295154
11
139.8637296400
21
179.2345295154
0
LINE
5
24A
100
AcDbEntity
8
0
100
AcDbLine
62
7
6
CONTINUOUS
10
82.1739141486
20
179.2345295154
11
79.1103146678
21
179.2345295154
0
LINE
5
24B
100
AcDbEntity
8
0
100
AcDbLine
62
7
6
CONTINUOUS
10
72.3484956614
20
220.1319947432
11
72.4478532664
21
219.9522152137
0
LINE
5
24C
100
AcDbEntity
8
0
100
AcDbLine
62
7
6
CONTINUOUS
10
75.7605287424
20
231.4809980582
11
75.8103906504
21
231.1846208762
0
LINE
5
24D
100
AcDbEntity
8
0
100
AcDbLine
62
7
6
CONTINUOUS
10
108.6388217798
20
251.6399870108
11
108.4954885832
21
251.4570074271
0
LINE
5
24E
100
AcDbEntity
8
0
100
AcDbLine
62
7
6
CONTINUOUS
10
111.7204885474
20
249.7187071036
11
111.5054885737
21
249.5357313346
0
LINE
5
24F
100
AcDbEntity
8
0
100
AcDbLine
62
7
6
CONTINUOUS
10
115.0171551100
20
248.9867925834
11
115.3038217417
21
249.1697721671
0
LINE
5
250
100
AcDbEntity
8
0
100
AcDbLine
62
7
6
CONTINUOUS
10
72.7948533884
20
220.1489353370
11
72.5713998667
21
220.4501953315
0
LINE
5
251
100
AcDbEntity
8
0
100
AcDbLine
62
7
6
CONTINUOUS
10
76.2320024363
20
231.1432638358
11
76.1573945872
21
231.3813409995
0
LINE
5
252
100
AcDbEntity
8
0
100
AcDbLine
62
7
6
CONTINUOUS
10
86.0188218943
20
168.1453046988
11
86.0188218943
21
173.2345295154
0
LINE
5
253
100
AcDbEntity
8
0
100
AcDbLine
62
7
6
CONTINUOUS
10
90.7421495310
20
247.1586675834
11
90.6738321177
21
246.6769972037
0
LINE
5
254
100
AcDbEntity
8
0
100
AcDbLine
62
7
6
CONTINUOUS
10
92.8413049570
20
246.8228254508
11
92.2194597117
21
243.6998911094
0
LINE
5
255
100
AcDbEntity
8
0
100
AcDbLine
62
7
6
CONTINUOUS
10
92.7390748850
20
243.9998922538
11
93.3096811167
21
246.7615728568
0
LINE
5
256
100
AcDbEntity
8
0
100
AcDbLine
62
7
6
CONTINUOUS
10
108.8538219324
20
251.1825399588
11
109.0688218466
21
251.5484953116
0
LINE
5
257
100
AcDbEntity
8
0
100
AcDbLine
62
7
6
CONTINUOUS
10
111.8638219229
20
249.1697721671
11
112.1504885546
21
249.5357313346
0
LINE
5
258
100
AcDbEntity
8
0
100
AcDbLine
62
7
6
CONTINUOUS
10
115.1604887835
20
249.7187071036
11
114.9454886309
21
249.5357313346
0
LINE
5
259
100
AcDbEntity
8
0
100
AcDbLine
62
7
6
CONTINUOUS
10
71.4552270762
20
220.7175741385
11
71.1329690806
21
220.5791521262
0
LINE
5
25A
100
AcDbEntity
8
DEFAULT_2
100
AcDbLine
62
8
6
HIDDEN
10
123.0188218943
20
169.1453046988
11
124.5188218943
21
167.6453046988
0
LINE
5
25B
100
AcDbEntity
8
0
100
AcDbLine
62
7
6
CONTINUOUS
10
75.8103906504
20
231.1846208762
11
76.0091020457
21
230.8250627707
0
LINE
5
25C
100
AcDbEntity
8
0
100
AcDbLine
62
7
6
CONTINUOUS
10
77.3967439524
20
232.0249166678
11
78.5644418589
21
229.6027803611
0
LINE
5
25D
100
AcDbEntity
8
0
100
AcDbLine
62
7
6
CONTINUOUS
10
78.7624132029
20
230.0691690635
11
77.7437478892
21
232.2216367911
0
LINE
5
25E
100
AcDbEntity
8
0
100
AcDbLine
62
7
6
CONTINUOUS
10
91.1251298777
20
246.4953298758
11
91.1114160410
21
246.8190794181
0
LINE
5
25F
100
AcDbEntity
8
0
100
AcDbLine
62
7
6
CONTINUOUS
10
115.3038217417
20
249.1697721671
11
115.5904886118
21
249.5357313346
0
LINE
5
260
100
AcDbEntity
8
0
100
AcDbLine
62
7
6
CONTINUOUS
10
72.1499711863
20
220.2850666236
11
72.3484956614
21
220.1319947432
0
LINE
5
261
100
AcDbEntity
8
0
100
AcDbLine
62
7
6
CONTINUOUS
10
72.5713998667
20
220.4501953315
11
72.3728753916
21
220.6032676886
0
LINE
5
262
100
AcDbEntity
8
0
100
AcDbLine
62
7
6
CONTINUOUS
10
77.1213914744
20
234.8939104270
11
78.5369226328
21
232.6417856406
0
LINE
5
263
100
AcDbEntity
8
0
100
AcDbLine
62
7
6
CONTINUOUS
10
78.7101480356
20
233.0498762320
11
77.7167817942
21
234.6411829184
0
LINE
5
264
100
AcDbEntity
8
0
100
AcDbLine
62
7
6
CONTINUOUS
10
93.3096811167
20
246.7615728568
11
93.2959691874
21
247.0853262137
0
LINE
5
265
100
AcDbEntity
8
0
100
AcDbLine
62
7
6
CONTINUOUS
10
111.8638219229
20
249.9931783866
11
111.7204885474
21
249.7187071036
0
LINE
5
266
100
AcDbEntity
8
0
100
AcDbLine
62
7
6
CONTINUOUS
10
115.3038217417
20
249.9931783866
11
115.1604887835
21
249.7187071036
0
LINE
5
267
100
AcDbEntity
8
0
100
AcDbLine
62
7
6
CONTINUOUS
10
72.4443399302
20
223.8754673194
11
75.1989442698
21
221.6741647910
0
LINE
5
268
100
AcDbEntity
8
0
100
AcDbLine
62
7
6
CONTINUOUS
10
75.6700479380
20
221.7494039725
11
73.2628175608
21
223.7344532203
0
LINE
5
269
100
AcDbEntity
8
0
100
AcDbLine
62
7
6
CONTINUOUS
10
76.4057809702
20
230.9318933677
11
76.2320024363
21
231.1432638358
0
LINE
5
26A
100
AcDbEntity
8
0
100
AcDbLine
62
7
6
CONTINUOUS
10
77.7437478892
20
232.2216367911
11
77.5699693552
21
232.4330072593
0
LINE
5
26B
100
AcDbEntity
8
0
100
AcDbLine
62
7
6
CONTINUOUS
10
92.7797185770
20
247.2294950675
11
92.8413049570
21
246.8228254508
0
LINE
5
26C
100
AcDbEntity
8
DEFAULT_2
100
AcDbLine
62
8
6
HIDDEN
10
99.0188218943
20
190.2135924994
11
99.0188218943
21
169.1453046988
0
LINE
5
26D
100
AcDbEntity
8
0
100
AcDbLine
62
7
6
CONTINUOUS
10
108.7104884974
20
251.9144544791
11
108.6388217798
21
251.6399870108
0
LINE
5
26E
100
AcDbEntity
8
0
100
AcDbLine
62
7
6
CONTINUOUS
10
109.0688218466
20
251.5484953116
11
109.1404885641
21
251.8229627799
0
LINE
5
26F
100
AcDbEntity
8
0
100
AcDbLine
62
7
6
CONTINUOUS
10
112.1504885546
20
249.5357313346
11
112.2938218704
21
249.9016866874
0
LINE
5
270
100
AcDbEntity
8
0
100
AcDbLine
62
7
6
CONTINUOUS
10
115.5904886118
20
249.5357313346
11
115.7338220469
21
249.9016866874
0
LINE
5
271
100
AcDbEntity
8
0
100
AcDbLine
62
7
6
CONTINUOUS
10
70.3409044138
20
218.9200830649
11
73.8388215891
21
217.4353046607
0
LINE
5
272
100
AcDbEntity
8
0
100
AcDbLine
62
7
6
CONTINUOUS
10
71.9778558604
20
218.6380543898
11
70.8614999644
21
219.1119198989
0
LINE
5
273
100
AcDbEntity
8
0
100
AcDbLine
62
7
6
CONTINUOUS
10
73.9873010508
20
217.7850966643
11
72.4244005076
21
218.4485082816
0
LINE
5
274
100
AcDbEntity
8
0
100
AcDbLine
62
7
6
CONTINUOUS
10
71.9267007700
20
220.3798399161
11
72.1499711863
21
220.2850666236
0
LINE
5
275
100
AcDbEntity
8
0
100
AcDbLine
62
7
6
CONTINUOUS
10
72.3728753916
20
220.6032676886
11
72.0751802317
21
220.7296314429
0
LINE
5
276
100
AcDbEntity
8
0
100
AcDbLine
62
7
6
CONTINUOUS
10
75.0179559580
20
229.9385252189
11
77.7725602976
21
227.7372236441
0
LINE
5
277
100
AcDbEntity
8
0
100
AcDbLine
62
7
6
CONTINUOUS
10
78.2436639658
20
227.8124628257
11
75.8364335886
21
229.7975111197
0
LINE
5
278
100
AcDbEntity
8
0
100
AcDbLine
62
7
6
CONTINUOUS
10
77.1485406748
20
232.2678785514
11
77.3967439524
21
232.0249166678
0
LINE
5
279
100
AcDbEntity
8
0
100
AcDbLine
62
7
6
CONTINUOUS
10
90.6738321177
20
246.6769972037
11
90.8003694407
21
246.3078298758
0
LINE
5
27A
100
AcDbEntity
8
0
100
AcDbLine
62
7
6
CONTINUOUS
10
106.4888216845
20
253.1953039359
11
106.4888216845
21
248.8953046988
0
LINE
5
27B
100
AcDbEntity
8
0
100
AcDbLine
62
7
6
CONTINUOUS
10
106.9188219897
20
248.8953046988
11
106.9188219897
21
250.8165807914
0
LINE
5
27C
100
AcDbEntity
8
0
100
AcDbLine
62
7
6
CONTINUOUS
10
106.9188219897
20
251.3655157279
11
106.9188219897
21
252.7378568839
0
LINE
5
27D
100
AcDbEntity
8
0
100
AcDbLine
62
7
6
CONTINUOUS
10
112.2938218704
20
249.9016866874
11
112.3654885880
21
250.3591337394
0
LINE
5
27E
100
AcDbEntity
8
0
100
AcDbLine
62
7
6
CONTINUOUS
10
111.9354885808
20
250.3591337394
11
111.8638219229
21
249.9931783866
0
LINE
5
27F
100
AcDbEntity
8
0
100
AcDbLine
62
7
6
CONTINUOUS
10
71.4792329661
20
221.6018200110
11
74.9771501414
21
220.1170420836
0
LINE
5
280
100
AcDbEntity
8
0
100
AcDbLine
62
7
6
CONTINUOUS
10
75.1256296030
20
220.4668340873
11
72.3719484202
21
221.6357021521
0
LINE
5
281
100
AcDbEntity
8
0
100
AcDbLine
62
7
6
CONTINUOUS
10
73.2628175608
20
223.7344532203
11
76.0164949290
21
222.5655851554
0
LINE
5
282
100
AcDbEntity
8
0
100
AcDbLine
62
7
6
CONTINUOUS
10
76.1649743906
20
222.9153766822
11
72.6670572153
21
224.4001550864
0
LINE
5
283
100
AcDbEntity
8
0
100
AcDbLine
62
7
6
CONTINUOUS
10
76.0091020457
20
230.8250627707
11
76.2820512644
21
230.6404009055
0
LINE
5
284
100
AcDbEntity
8
0
100
AcDbLine
62
7
6
CONTINUOUS
10
93.2959691874
20
247.0853262137
11
93.1694299570
21
247.4544935416
0
LINE
5
285
100
AcDbEntity
8
0
100
AcDbLine
62
7
6
CONTINUOUS
10
108.7104884974
20
252.1889219474
11
108.7104884974
21
251.9144544791
0
LINE
5
286
100
AcDbEntity
8
0
100
AcDbLine
62
7
6
CONTINUOUS
10
109.1404885641
20
251.8229627799
11
109.1404885641
21
252.1889219474
0
LINE
5
287
100
AcDbEntity
8
0
100
AcDbLine
62
7
6
CONTINUOUS
10
109.7854885451
20
253.1953039359
11
109.7854885451
21
250.3591337394
0
LINE
5
288
100
AcDbEntity
8
0
100
AcDbLine
62
7
6
CONTINUOUS
10
110.2154885522
20
250.3591337394
11
110.2154885522
21
253.1953039359
0
LINE
5
289
100
AcDbEntity
8
DEFAULT_1
100
AcDbLine
62
2
6
CENTER
10
111.0188218943
20
212.1453046988
11
111.0188218943
21
157.6453046988
0
LINE
5
28A
100
AcDbEntity
8
DEFAULT_1
100
AcDbLine
62
2
6
CENTER
10
111.0188218943
20
212.1453046988
11
111.0188218943
21
240.1453046988
0
LINE
5
28B
100
AcDbEntity
8
0
100
AcDbLine
62
7
6
CONTINUOUS
10
115.7338220469
20
249.9016866874
11
115.8054887644
21
250.3591337394
0
LINE
5
28C
100
AcDbEntity
8
0
100
AcDbLine
62
7
6
CONTINUOUS
10
115.3754884592
20
250.3591337394
11
115.3038217417
21
249.9931783866
0
LINE
5
28D
100
AcDbEntity
8
DEFAULT_1
100
AcDbLine
62
2
6
CENTER
10
111.0188218943
20
212.1453046988
11
83.0188218943
21
212.1453046988
0
LINE
5
28E
100
AcDbEntity
8
DEFAULT_1
100
AcDbLine
62
2
6
CENTER
10
111.0188218943
20
212.1453046988
11
139.0188218943
21
212.1453046988
0
LINE
5
28F
100
AcDbEntity
8
0
100
AcDbLine
62
7
6
CONTINUOUS
10
74.0528489939
20
227.6648788642
11
77.5507661692
21
226.1801004599
0
LINE
5
290
100
AcDbEntity
8
0
100
AcDbLine
62
7
6
CONTINUOUS
10
77.6992456309
20
226.5298929404
11
74.9455644480
21
227.6987610053
0
LINE
5
291
100
AcDbEntity
8
0
100
AcDbLine
62
7
6
CONTINUOUS
10
77.5699693552
20
232.4330072593
11
77.2970201365
21
232.6176710318
0
LINE
5
292
100
AcDbEntity
8
0
100
AcDbLine
62
7
6
CONTINUOUS
10
92.2194597117
20
243.6998911094
11
92.4588224283
21
243.2853040885
0
LINE
5
293
100
AcDbEntity
8
0
100
AcDbLine
62
7
6
CONTINUOUS
10
111.9354885808
20
253.1953039359
11
111.9354885808
21
250.3591337394
0
LINE
5
294
100
AcDbEntity
8
0
100
AcDbLine
62
7
6
CONTINUOUS
10
112.3654885880
20
250.3591337394
11
112.3654885880
21
253.1953039359
0
LINE
5
295
100
AcDbEntity
8
0
100
AcDbLine
62
7
6
CONTINUOUS
10
112.9388218514
20
253.1953039359
11
112.9388218514
21
248.8953046988
0
LINE
5
296
100
AcDbEntity
8
0
100
AcDbLine
62
7
6
CONTINUOUS
10
113.3688217989
20
249.4442396354
11
113.3688217989
21
252.6463689994
0
LINE
5
297
100
AcDbEntity
8
0
100
AcDbLine
62
7
6
CONTINUOUS
10
115.3754884592
20
251.7314748954
11
115.3754884592
21
250.3591337394
0
LINE
5
298
100
AcDbEntity
8
0
100
AcDbLine
62
7
6
CONTINUOUS
10
115.8054887644
20
250.3591337394
11
115.8054887644
21
251.7314748954
0
LINE
5
299
100
AcDbEntity
8
0
100
AcDbLine
62
7
6
CONTINUOUS
10
74.7791826121
20
219.6506529044
11
72.8447191111
21
219.8525591086
0
LINE
5
29A
100
AcDbEntity
8
0
100
AcDbLine
62
7
6
CONTINUOUS
10
72.8450853220
20
219.4395852279
11
74.6059572092
21
219.2425627898
0
LINE
5
29B
100
AcDbEntity
8
0
100
AcDbLine
62
7
6
CONTINUOUS
10
72.3719484202
20
221.6357021521
11
75.4720765940
21
221.2830152701
0
LINE
5
29C
100
AcDbEntity
8
0
100
AcDbLine
62
7
6
CONTINUOUS
10
75.1989442698
20
221.6741647910
11
71.7019502512
21
222.1265077781
0
LINE
5
29D
100
AcDbEntity
8
0
100
AcDbLine
62
7
6
CONTINUOUS
10
71.6786844126
20
220.4163141440
11
71.9267007700
21
220.3798399161
0
LINE
5
29E
100
AcDbEntity
8
0
100
AcDbLine
62
7
6
CONTINUOUS
10
72.0751802317
20
220.7296314429
11
71.8271600596
21
220.7661056708
0
LINE
5
29F
100
AcDbEntity
8
0
100
AcDbLine
62
7
6
CONTINUOUS
10
75.8364335886
20
229.7975111197
11
78.5901109568
21
228.6286440085
0
LINE
5
2A0
100
AcDbEntity
8
0
100
AcDbLine
62
7
6
CONTINUOUS
10
78.7385904185
20
228.9784364890
11
75.2406732432
21
230.4632139396
0
LINE
5
2A1
100
AcDbEntity
8
0
100
AcDbLine
62
7
6
CONTINUOUS
10
78.5644418589
20
229.6027803611
11
78.9365617625
21
229.4448251914
0
LINE
5
2A2
100
AcDbEntity
8
0
100
AcDbLine
62
7
6
CONTINUOUS
10
76.9996950022
20
232.3310613822
11
77.1485406748
21
232.2678785514
0
LINE
5
2A3
100
AcDbEntity
8
0
100
AcDbLine
62
7
6
CONTINUOUS
10
79.8274270884
20
231.5435762595
11
79.4553090922
21
231.7015314292
0
LINE
5
2A4
100
AcDbEntity
8
0
100
AcDbLine
62
7
6
CONTINUOUS
10
77.2970201365
20
232.6176710318
11
77.1481706492
21
232.6808519553
0
LINE
5
2A5
100
AcDbEntity
8
0
100
AcDbLine
62
7
6
CONTINUOUS
10
92.6839753977
20
247.3953275870
11
92.7797185770
21
247.2294950675
0
LINE
5
2A6
100
AcDbEntity
8
0
100
AcDbLine
62
7
6
CONTINUOUS
10
93.1694299570
20
247.4544935416
11
93.0736867777
21
247.6203298758
0
LINE
5
2A7
100
AcDbEntity
8
0
100
AcDbLine
62
7
6
CONTINUOUS
10
94.7970907084
20
244.6353063773
11
94.5577279917
21
245.0498914908
0
LINE
5
2A8
100
AcDbEntity
8
0
100
AcDbLine
62
7
6
CONTINUOUS
10
93.7847902170
20
247.5886602591
11
93.9762803904
21
247.2569914054
0
LINE
5
2A9
100
AcDbEntity
8
0
100
AcDbLine
62
7
6
CONTINUOUS
10
94.4958955637
20
247.5569906424
11
95.4533426157
21
245.8986425589
0
LINE
5
2AA
100
AcDbEntity
8
0
100
AcDbLine
62
7
6
CONTINUOUS
10
93.9214269511
20
248.5519972037
11
94.3044053904
21
247.8886594962
0
LINE
5
2AB
100
AcDbEntity
8
0
100
AcDbLine
62
7
6
CONTINUOUS
10
94.6291658274
20
248.0761594962
11
94.2461873881
21
248.7394972037
0
LINE
5
2AC
100
AcDbEntity
8
0
100
AcDbLine
62
7
6
CONTINUOUS
10
95.6823570124
20
246.2519788932
11
94.8206540934
21
247.7444906424
0
LINE
5
2AD
100
AcDbEntity
8
0
100
AcDbLine
62
7
6
CONTINUOUS
10
96.7456476084
20
245.7603063773
11
96.5541583887
21
246.0919752311
0
LINE
5
2AE
100
AcDbEntity
8
0
100
AcDbLine
62
7
6
CONTINUOUS
10
95.5351259104
20
248.1569891166
11
95.3436366907
21
248.4886579703
0
LINE
5
2AF
100
AcDbEntity
8
0
100
AcDbLine
62
7
6
CONTINUOUS
10
109.7854885451
20
250.3591337394
11
109.8571552626
21
249.9016866874
0
LINE
5
2B0
100
AcDbEntity
8
0
100
AcDbLine
62
7
6
CONTINUOUS
10
78.5369226328
20
232.6417856406
11
78.9834634653
21
232.4522390555
0
LINE
5
2B1
100
AcDbEntity
8
0
100
AcDbLine
62
7
6
CONTINUOUS
10
77.7167817942
20
234.6411829184
11
79.1308328501
21
234.0409536551
0
LINE
5
2B2
100
AcDbEntity
8
0
100
AcDbLine
62
7
6
CONTINUOUS
10
79.5773755900
20
233.8514070700
11
80.6193086497
21
233.4091329764
0
LINE
5
2B3
100
AcDbEntity
8
0
100
AcDbLine
62
7
6
CONTINUOUS
10
79.2793104044
20
234.3907442283
11
77.2698671213
21
235.2437029074
0
LINE
5
2B4
100
AcDbEntity
8
0
100
AcDbLine
62
7
6
CONTINUOUS
10
80.7677881113
20
233.7589235495
11
79.7258531443
21
234.2011976432
0
LINE
5
2B5
100
AcDbEntity
8
0
100
AcDbLine
62
7
6
CONTINUOUS
10
79.9733163706
20
234.7841844748
11
79.5267736307
21
234.9737310599
0
LINE
5
2B6
100
AcDbEntity
8
0
100
AcDbLine
62
7
6
CONTINUOUS
10
109.2121552817
20
248.8953046988
11
108.5671553007
21
250.9995603751
0
LINE
5
2B7
100
AcDbEntity
8
0
100
AcDbLine
62
7
6
CONTINUOUS
10
108.1371552340
20
250.8165807914
11
108.7104884974
21
248.8953046988
0
LINE
5
2B8
100
AcDbEntity
8
0
100
AcDbLine
62
7
6
CONTINUOUS
10
108.6388217798
20
252.4633894156
11
108.7104884974
21
252.1889219474
0
LINE
5
2B9
100
AcDbEntity
8
0
100
AcDbLine
62
7
6
CONTINUOUS
10
109.1404885641
20
252.1889219474
11
109.0688218466
21
252.4633894156
0
LINE
5
2BA
100
AcDbEntity
8
0
100
AcDbLine
62
7
6
CONTINUOUS
10
110.2871552101
20
249.9931783866
11
110.2154885522
21
250.3591337394
0
LINE
5
2BB
100
AcDbEntity
8
DEFAULT_2
100
AcDbLine
62
8
6
HIDDEN
10
123.0188218943
20
190.2135924994
11
123.0188218943
21
169.1453046988
0
LINE
5
2BC
100
AcDbEntity
8
0
100
AcDbLine
62
7
6
CONTINUOUS
10
71.8271600596
20
220.7661056708
11
71.4552270762
21
220.7175741385
0
LINE
5
2BD
100
AcDbEntity
8
0
100
AcDbLine
62
7
6
CONTINUOUS
10
74.9455644480
20
227.6987610053
11
78.0456926218
21
227.3460731696
0
LINE
5
2BE
100
AcDbEntity
8
0
100
AcDbLine
62
7
6
CONTINUOUS
10
77.7725602976
20
227.7372236441
11
74.2755662791
21
228.1895666312
0
LINE
5
2BF
100
AcDbEntity
8
0
100
AcDbLine
62
7
6
CONTINUOUS
10
77.1481706492
20
232.6808519553
11
76.8257295481
21
232.7489175986
0
LINE
5
2C0
100
AcDbEntity
8
0
100
AcDbLine
62
7
6
CONTINUOUS
10
95.8909255854
20
246.0407247733
11
95.6823570124
21
246.2519788932
0
LINE
5
2C1
100
AcDbEntity
8
0
100
AcDbLine
62
7
6
CONTINUOUS
10
93.0736867777
20
247.6203298758
11
92.8172456614
21
247.9144964408
0
LINE
5
2C2
100
AcDbEntity
8
0
100
AcDbLine
62
7
6
CONTINUOUS
10
109.8571552626
20
249.9016866874
11
110.0004885784
21
249.5357313346
0
LINE
5
2C3
100
AcDbEntity
8
0
100
AcDbLine
62
7
6
CONTINUOUS
10
115.3038217417
20
252.0974340628
11
115.3754884592
21
251.7314748954
0
LINE
5
2C4
100
AcDbEntity
8
0
100
AcDbLine
62
7
6
CONTINUOUS
10
115.8054887644
20
251.7314748954
11
115.7338220469
21
252.1889219474
0
LINE
5
2C5
100
AcDbEntity
8
0
100
AcDbLine
62
7
6
CONTINUOUS
10
71.4803430430
20
220.3628988456
11
71.6786844126
21
220.4163141440
0
LINE
5
2C6
100
AcDbEntity
8
0
100
AcDbLine
62
7
6
CONTINUOUS
10
95.4533426157
20
245.8986425589
11
95.7747356287
21
245.6419744681
0
LINE
5
2C7
100
AcDbEntity
8
0
100
AcDbLine
62
7
6
CONTINUOUS
10
110.4304885856
20
249.7187071036
11
110.2871552101
21
249.9931783866
0
LINE
5
2C8
100
AcDbEntity
8
0
100
AcDbLine
62
7
6
CONTINUOUS
10
76.7269288889
20
232.3092374991
11
76.9996950022
21
232.3310613822
0
LINE
5
2C9
100
AcDbEntity
8
0
100
AcDbLine
62
7
6
CONTINUOUS
10
92.4104539744
20
247.5690794181
11
92.6839753977
21
247.3953275870
0
LINE
5
2CA
100
AcDbEntity
8
0
100
AcDbLine
62
7
6
CONTINUOUS
10
110.0004885784
20
249.5357313346
11
110.2871552101
21
249.1697721671
0
LINE
5
2CB
100
AcDbEntity
8
0
100
AcDbLine
62
7
6
CONTINUOUS
10
109.0688218466
20
252.4633894156
11
108.8538219324
21
252.8293485831
0
LINE
5
2CC
100
AcDbEntity
8
0
100
AcDbLine
62
7
6
CONTINUOUS
10
115.1604887835
20
252.3719015311
11
115.3038217417
21
252.0974340628
0
LINE
5
2CD
100
AcDbEntity
8
0
100
AcDbLine
62
7
6
CONTINUOUS
10
115.7338220469
20
252.1889219474
11
115.5904886118
21
252.5548773001
0
LINE
5
2CE
100
AcDbEntity
8
0
100
AcDbLine
62
7
6
CONTINUOUS
10
136.0188218943
20
168.1453046988
11
136.0188218943
21
173.2345295154
0
LINE
5
2CF
100
AcDbEntity
8
DEFAULT_2
100
AcDbLine
62
8
6
HIDDEN
10
99.0188218943
20
169.1453046988
11
97.5188218943
21
167.6453046988
0
LINE
5
2D0
100
AcDbEntity
8
0
100
AcDbLine
62
7
6
CONTINUOUS
10
92.8172456614
20
247.9144964408
11
92.3659479014
21
248.0961675834
0
LINE
5
2D1
100
AcDbEntity
8
0
100
AcDbLine
62
7
6
CONTINUOUS
10
108.4954885832
20
252.6463689994
11
108.6388217798
21
252.4633894156
0
LINE
5
2D2
100
AcDbEntity
8
0
100
AcDbLine
62
7
6
CONTINUOUS
10
76.8257295481
20
232.7489175986
11
76.4290506235
21
232.6420870017
0
LINE
5
2D3
100
AcDbEntity
8
0
100
AcDbLine
62
7
6
CONTINUOUS
10
95.7747356287
20
245.6419744681
11
96.0653354517
21
245.5886411856
0
LINE
5
2D4
100
AcDbEntity
8
0
100
AcDbLine
62
7
6
CONTINUOUS
10
96.1815263621
20
245.9873914908
11
95.8909255854
21
246.0407247733
0
LINE
5
2D5
100
AcDbEntity
8
0
100
AcDbLine
62
7
6
CONTINUOUS
10
92.1198541514
20
247.6224165152
11
92.4104539744
21
247.5690794181
0
LINE
5
2D6
100
AcDbEntity
8
0
100
AcDbLine
62
7
6
CONTINUOUS
10
110.2871552101
20
249.1697721671
11
110.5738219014
21
248.9867925834
0
LINE
5
2D7
100
AcDbEntity
8
0
100
AcDbLine
62
7
6
CONTINUOUS
10
110.6454885594
20
249.5357313346
11
110.4304885856
21
249.7187071036
0
LINE
5
2D8
100
AcDbEntity
8
0
100
AcDbLine
62
7
6
CONTINUOUS
10
108.8538219324
20
252.8293485831
11
108.5671553007
21
253.1038160514
0
LINE
5
2D9
100
AcDbEntity
8
0
100
AcDbLine
62
7
6
CONTINUOUS
10
115.5904886118
20
252.5548773001
11
115.3038217417
21
252.9208364676
0
LINE
5
2DA
100
AcDbEntity
8
0
100
AcDbLine
62
7
6
CONTINUOUS
10
114.6588219992
20
248.8953046988
11
115.0171551100
21
248.9867925834
0
LINE
5
2DB
100
AcDbEntity
8
0
100
AcDbLine
62
7
6
CONTINUOUS
10
111.2188218973
20
248.8953046988
11
111.5771552316
21
248.9867925834
0
LINE
5
2DC
100
AcDbEntity
8
0
100
AcDbLine
62
7
6
CONTINUOUS
10
96.0653354517
20
245.5886411856
11
96.3080636851
21
245.6182203482
0
LINE
5
2DD
100
AcDbEntity
8
0
100
AcDbLine
62
7
6
CONTINUOUS
10
92.3659479014
20
248.0961675834
11
92.0103952280
21
248.1120023917
0
LINE
5
2DE
100
AcDbEntity
8
0
100
AcDbLine
62
7
6
CONTINUOUS
10
110.5738219014
20
248.9867925834
11
110.9321552283
21
248.8953046988
0
LINE
5
2DF
100
AcDbEntity
8
0
100
AcDbLine
62
7
6
CONTINUOUS
10
110.9321552283
20
249.4442396354
11
110.6454885594
21
249.5357313346
0
LINE
5
2E0
100
AcDbEntity
8
0
100
AcDbLine
62
7
6
CONTINUOUS
10
114.9454886309
20
252.5548773001
11
115.1604887835
21
252.3719015311
0
LINE
5
2E1
100
AcDbEntity
8
0
100
AcDbLine
62
7
6
CONTINUOUS
10
96.5541583887
20
246.0919752311
11
96.1815263621
21
245.9873914908
0
LINE
5
2E2
100
AcDbEntity
8
0
100
AcDbLine
62
7
6
CONTINUOUS
10
91.7472211710
20
247.5178327750
11
92.1198541514
21
247.6224165152
0
LINE
5
2E3
100
AcDbEntity
8
0
100
AcDbLine
62
7
6
CONTINUOUS
10
106.4888216845
20
248.8953046988
11
106.9188219897
21
248.8953046988
0
LINE
5
2E4
100
AcDbEntity
8
0
100
AcDbLine
62
7
6
CONTINUOUS
10
108.7104884974
20
248.8953046988
11
109.2121552817
21
248.8953046988
0
LINE
5
2E5
100
AcDbEntity
8
0
100
AcDbLine
62
7
6
CONTINUOUS
10
110.9321552283
20
248.8953046988
11
111.2188218973
21
248.8953046988
0
LINE
5
2E6
100
AcDbEntity
8
0
100
AcDbLine
62
7
6
CONTINUOUS
10
112.9388218514
20
248.8953046988
11
114.6588219992
21
248.8953046988
0
LINE
5
2E7
100
AcDbEntity
8
0
100
AcDbLine
62
7
6
CONTINUOUS
10
114.6588219992
20
249.4442396354
11
113.3688217989
21
249.4442396354
0
LINE
5
2E8
100
AcDbEntity
8
0
100
AcDbLine
62
7
6
CONTINUOUS
10
111.2188218973
20
249.4442396354
11
110.9321552283
21
249.4442396354
0
LINE
5
2E9
100
AcDbEntity
8
0
100
AcDbLine
62
7
6
CONTINUOUS
10
106.9188219897
20
250.8165807914
11
108.1371552340
21
250.8165807914
0
LINE
5
2EA
100
AcDbEntity
8
0
100
AcDbLine
62
7
6
CONTINUOUS
10
108.2804886690
20
251.3655157279
11
106.9188219897
21
251.3655157279
0
LINE
5
2EB
100
AcDbEntity
8
0
100
AcDbLine
62
7
6
CONTINUOUS
10
108.5671553007
20
253.1038160514
11
108.2088219515
21
253.1953039359
0
LINE
5
2EC
100
AcDbEntity
8
0
100
AcDbLine
62
7
6
CONTINUOUS
10
114.6588219992
20
252.6463689994
11
114.9454886309
21
252.5548773001
0
LINE
5
2ED
100
AcDbEntity
8
0
100
AcDbLine
62
7
6
CONTINUOUS
10
108.2804886690
20
252.7378568839
11
108.4954885832
21
252.6463689994
0
LINE
5
2EE
100
AcDbEntity
8
0
100
AcDbLine
62
7
6
CONTINUOUS
10
115.3038217417
20
252.9208364676
11
115.0171551100
21
253.1038160514
0
LINE
5
2EF
100
AcDbEntity
8
0
100
AcDbLine
62
7
6
CONTINUOUS
10
156.9276358357
20
210.6145709694
11
144.3131484196
21
180.1605043669
0
LINE
5
2F0
100
AcDbEntity
8
0
100
AcDbLine
62
7
6
CONTINUOUS
10
113.3688217989
20
252.6463689994
11
114.6588219992
21
252.6463689994
0
LINE
5
2F1
100
AcDbEntity
8
0
100
AcDbLine
62
7
6
CONTINUOUS
10
106.9188219897
20
252.7378568839
11
108.2804886690
21
252.7378568839
0
LINE
5
2F2
100
AcDbEntity
8
0
100
AcDbLine
62
7
6
CONTINUOUS
10
114.6588219992
20
253.1953039359
11
112.9388218514
21
253.1953039359
0
LINE
5
2F3
100
AcDbEntity
8
0
100
AcDbLine
62
7
6
CONTINUOUS
10
112.3654885880
20
253.1953039359
11
111.9354885808
21
253.1953039359
0
LINE
5
2F4
100
AcDbEntity
8
0
100
AcDbLine
62
7
6
CONTINUOUS
10
110.2154885522
20
253.1953039359
11
109.7854885451
21
253.1953039359
0
LINE
5
2F5
100
AcDbEntity
8
0
100
AcDbLine
62
7
6
CONTINUOUS
10
108.2088219515
20
253.1953039359
11
106.4888216845
21
253.1953039359
0
LINE
5
2F6
100
AcDbEntity
8
0
100
AcDbLine
62
7
6
CONTINUOUS
10
115.0171551100
20
253.1038160514
11
114.6588219992
21
253.1953039359
0
LINE
5
2F7
100
AcDbEntity
8
0
100
AcDbLine
62
7
6
CONTINUOUS
10
112.5495556238
20
258.0541186403
11
142.3988633482
21
245.6901305534
0
LINE
5
2F8
100
AcDbEntity
8
0
100
AcDbLine
62
7
6
CONTINUOUS
10
144.5636477488
20
243.5253461528
11
156.9276358357
21
213.6760384283
0
LINE
5
2F9
100
AcDbEntity
8
0
100
AcDbLine
62
7
6
CONTINUOUS
10
135.5188218943
20
167.6453046988
11
136.0188218943
21
168.1453046988
0
LINE
5
2FA
100
AcDbEntity
8
0
100
AcDbLine
62
7
6
CONTINUOUS
10
270.8771295894
20
167.6453046988
11
270.3771295894
21
168.1453046988
0
LINE
5
2FB
100
AcDbEntity
8
0
100
AcDbLine
62
7
6
CONTINUOUS
10
270.8775578153
20
167.6453046988
11
319.8767013634
21
167.6453046988
0
LINE
5
2FC
100
AcDbEntity
8
0
100
AcDbLine
62
7
6
CONTINUOUS
10
270.3771295894
20
168.1453046988
11
320.3771295894
21
168.1453046988
0
LINE
5
2FD
100
AcDbEntity
8
DEFAULT_2
100
AcDbLine
62
8
6
HIDDEN
10
307.3771295894
20
169.1453046988
11
283.3771295894
21
169.1453046988
0
LINE
5
2FE
100
AcDbEntity
8
0
100
AcDbLine
62
7
6
CONTINUOUS
10
306.7341771468
20
179.2345295154
11
284.0200820320
21
179.2345295154
0
LINE
5
2FF
100
AcDbEntity
8
0
100
AcDbLine
62
7
6
CONTINUOUS
10
270.3771295894
20
168.1453046988
11
270.3771295894
21
179.6945513365
0
LINE
5
300
100
AcDbEntity
8
0
100
AcDbLine
62
7
6
CONTINUOUS
10
273.7513917292
20
183.6453046988
11
282.1433743313
21
184.9744641665
0
LINE
5
301
100
AcDbEntity
8
0
100
AcDbLine
62
7
6
CONTINUOUS
10
317.0028674495
20
183.6453046988
11
308.6432182238
21
184.9693430628
0
LINE
5
302
100
AcDbEntity
8
DEFAULT_2
100
AcDbLine
62
8
6
HIDDEN
10
307.3771295894
20
169.1453046988
11
308.8771295894
21
167.6453046988
0
LINE
5
303
100
AcDbEntity
8
DEFAULT_2
100
AcDbLine
62
8
6
HIDDEN
10
283.3771295894
20
186.6761945268
11
283.3771295894
21
169.1453046988
0
LINE
5
304
100
AcDbEntity
8
0
100
AcDbLine
62
7
6
CONTINUOUS
10
285.3771295894
20
256.8586004905
11
285.3771295894
21
213.0549744772
0
LINE
5
305
100
AcDbEntity
8
0
100
AcDbLine
62
7
6
CONTINUOUS
10
285.2945505141
20
211.2393909049
11
282.2181731452
21
177.4907362489
0
LINE
5
306
100
AcDbEntity
8
DEFAULT_1
100
AcDbLine
62
2
6
CENTER
10
295.3771295894
20
263.0718643587
11
295.3771295894
21
164.6453046988
0
LINE
5
307
100
AcDbEntity
8
0
100
AcDbLine
62
7
6
CONTINUOUS
10
305.3771295894
20
217.4353046607
11
305.6771295894
21
217.4353046607
0
LINE
5
308
100
AcDbEntity
8
0
100
AcDbLine
62
7
6
CONTINUOUS
10
308.5360860151
20
177.4907364515
11
305.4597086647
21
211.2393909049
0
LINE
5
309
100
AcDbEntity
8
0
100
AcDbLine
62
7
6
CONTINUOUS
10
305.3771295894
20
213.0549744772
11
305.3771295894
21
256.8586005102
0
LINE
5
30A
100
AcDbEntity
8
0
100
AcDbLine
62
7
6
CONTINUOUS
10
305.6771295894
20
253.1953039359
11
305.6771295894
21
248.8953046988
0
LINE
5
30B
100
AcDbEntity
8
0
100
AcDbLine
62
7
6
CONTINUOUS
10
305.6771295894
20
248.7394972037
11
305.6771295894
21
243.2853040885
0
LINE
5
30C
100
AcDbEntity
8
0
100
AcDbLine
62
7
6
CONTINUOUS
10
305.6771295894
20
235.2437029074
11
305.6771295894
21
226.1801004599
0
LINE
5
30D
100
AcDbEntity
8
0
100
AcDbLine
62
7
6
CONTINUOUS
10
305.6771295894
20
224.4001550864
11
305.6771295894
21
217.4353046607
0
LINE
5
30E
100
AcDbEntity
8
DEFAULT_2
100
AcDbLine
62
8
6
HIDDEN
10
307.3771295894
20
186.6761579473
11
307.3771295894
21
169.1453046988
0
LINE
5
30F
100
AcDbEntity
8
0
100
AcDbLine
62
7
6
CONTINUOUS
10
305.3771295894
20
224.4001550864
11
305.6771295894
21
224.4001550864
0
LINE
5
310
100
AcDbEntity
8
0
100
AcDbLine
62
7
6
CONTINUOUS
10
305.3771295894
20
226.1801004599
11
305.6771295894
21
226.1801004599
0
LINE
5
311
100
AcDbEntity
8
DEFAULT_2
100
AcDbLine
62
8
6
HIDDEN
10
283.3771295894
20
169.1453046988
11
281.8771295894
21
167.6453046988
0
LINE
5
312
100
AcDbEntity
8
0
100
AcDbLine
62
7
6
CONTINUOUS
10
305.3771295894
20
235.2437029074
11
305.6771295894
21
235.2437029074
0
LINE
5
313
100
AcDbEntity
8
0
100
AcDbLine
62
7
6
CONTINUOUS
10
320.3771295894
20
168.1453046988
11
320.3771295894
21
179.6945513365
0
LINE
5
314
100
AcDbEntity
8
0
100
AcDbLine
62
7
6
CONTINUOUS
10
305.3771295894
20
243.2853040885
11
305.6771295894
21
243.2853040885
0
LINE
5
315
100
AcDbEntity
8
0
100
AcDbLine
62
7
6
CONTINUOUS
10
305.3771295894
20
248.7394972037
11
305.6771295894
21
248.7394972037
0
LINE
5
316
100
AcDbEntity
8
0
100
AcDbLine
62
7
6
CONTINUOUS
10
305.3771295894
20
248.8953046988
11
305.6771295894
21
248.8953046988
0
LINE
5
317
100
AcDbEntity
8
0
100
AcDbLine
62
7
6
CONTINUOUS
10
305.3771295894
20
253.1953039359
11
305.6771295894
21
253.1953039359
0
LINE
5
318
100
AcDbEntity
8
0
100
AcDbLine
62
7
6
CONTINUOUS
10
319.8771295894
20
167.6453046988
11
320.3771295894
21
168.1453046988
0
LINE
5
319
100
AcDbEntity
8
0
100
AcDbLine
62
7
6
CONTINUOUS
10
303.8771295894
20
258.3586005102
11
286.8771295894
21
258.3586005102
0
LINE
5
31A
100
AcDbEntity
8
0
100
AcDbLine
62
7
6
CONTINUOUS
10
64.8055260829
20
104.0939408668
11
64.8055260829
21
121.1329781343
0
LINE
5
31B
100
AcDbEntity
8
0
100
AcDbLine
62
7
6
CONTINUOUS
10
70.3409044138
20
102.6134594999
11
70.3409044138
21
102.3134594999
0
LINE
5
31C
100
AcDbEntity
8
0
100
AcDbLine
62
7
6
CONTINUOUS
10
80.7677881113
20
102.6134594999
11
80.7677881113
21
102.3134594999
0
LINE
5
31D
100
AcDbEntity
8
0
100
AcDbLine
62
7
6
CONTINUOUS
10
90.6738321177
20
102.6134594999
11
90.6738321177
21
102.3134594999
0
LINE
5
31E
100
AcDbEntity
8
0
100
AcDbLine
62
7
6
CONTINUOUS
10
155.8288425347
20
102.5597415018
11
143.2497181793
21
99.7914664504
0
LINE
5
31F
100
AcDbEntity
8
0
100
AcDbLine
62
7
6
CONTINUOUS
10
155.8506095568
20
102.5644262017
11
155.8493741437
21
102.5641669505
0
LINE
5
320
100
AcDbEntity
8
0
100
AcDbLine
62
7
6
CONTINUOUS
10
66.1870344511
20
102.5644276973
11
66.1881429742
21
102.5641949906
0
LINE
5
321
100
AcDbEntity
8
0
100
AcDbLine
62
7
6
CONTINUOUS
10
78.7879256093
20
99.7914664504
11
66.2088012539
21
102.5597415018
0
LINE
5
322
100
AcDbEntity
8
0
100
AcDbLine
62
7
6
CONTINUOUS
10
96.7456476084
20
102.6134594999
11
96.7456476084
21
102.3134594999
0
LINE
5
323
100
AcDbEntity
8
0
100
AcDbLine
62
7
6
CONTINUOUS
10
142.9273291208
20
99.7564119425
11
139.8635348900
21
99.7564119425
0
LINE
5
324
100
AcDbEntity
8
0
100
AcDbLine
62
7
6
CONTINUOUS
10
82.1741088470
20
99.7564119425
11
79.1103146678
21
99.7564119425
0
LINE
5
325
100
AcDbEntity
8
0
100
AcDbLine
62
7
6
CONTINUOUS
10
115.8054887644
20
102.3134594999
11
112.9388218514
21
102.3134594999
0
LINE
5
326
100
AcDbEntity
8
0
100
AcDbLine
62
7
6
CONTINUOUS
10
112.3654885880
20
102.3134594999
11
109.7854885451
21
102.3134594999
0
LINE
5
327
100
AcDbEntity
8
0
100
AcDbLine
62
7
6
CONTINUOUS
10
109.2121552817
20
102.3134594999
11
106.4888216845
21
102.3134594999
0
LINE
5
328
100
AcDbEntity
8
0
100
AcDbLine
62
7
6
CONTINUOUS
10
96.7456476084
20
102.3134594999
11
90.6738321177
21
102.3134594999
0
LINE
5
329
100
AcDbEntity
8
0
100
AcDbLine
62
7
6
CONTINUOUS
10
80.7677881113
20
102.3134594999
11
70.3409044138
21
102.3134594999
0
LINE
5
32A
100
AcDbEntity
8
0
100
AcDbLine
62
7
6
CONTINUOUS
10
66.4768996864
20
102.6134594999
11
155.5607441022
21
102.6134594999
0
LINE
5
32B
100
AcDbEntity
8
0
100
AcDbLine
62
7
6
CONTINUOUS
10
106.4888216845
20
102.6134594999
11
106.4888216845
21
102.3134594999
0
LINE
5
32C
100
AcDbEntity
8
0
100
AcDbLine
62
7
6
CONTINUOUS
10
109.2121552817
20
102.6134594999
11
109.2121552817
21
102.3134594999
0
LINE
5
32D
100
AcDbEntity
8
0
100
AcDbLine
62
7
6
CONTINUOUS
10
109.7854885451
20
102.6134594999
11
109.7854885451
21
102.3134594999
0
LINE
5
32E
100
AcDbEntity
8
DEFAULT_1
100
AcDbLine
62
2
6
CENTER
10
111.0188218943
20
112.6134594999
11
111.0188218943
21
84.6134594999
0
LINE
5
32F
100
AcDbEntity
8
DEFAULT_1
100
AcDbLine
62
2
6
CENTER
10
111.0188218943
20
112.6134594999
11
111.0188218943
21
140.6134594999
0
LINE
5
330
100
AcDbEntity
8
DEFAULT_1
100
AcDbLine
62
2
6
CENTER
10
111.0188218943
20
112.6134594999
11
83.0188218943
21
112.6134594999
0
LINE
5
331
100
AcDbEntity
8
DEFAULT_1
100
AcDbLine
62
2
6
CENTER
10
111.0188218943
20
112.6134594999
11
139.0188218943
21
112.6134594999
0
LINE
5
332
100
AcDbEntity
8
0
100
AcDbLine
62
7
6
CONTINUOUS
10
112.3654885880
20
102.6134594999
11
112.3654885880
21
102.3134594999
0
LINE
5
333
100
AcDbEntity
8
0
100
AcDbLine
62
7
6
CONTINUOUS
10
112.9388218514
20
102.6134594999
11
112.9388218514
21
102.3134594999
0
LINE
5
334
100
AcDbEntity
8
0
100
AcDbLine
62
7
6
CONTINUOUS
10
115.8054887644
20
102.6134594999
11
115.8054887644
21
102.3134594999
0
LINE
5
335
100
AcDbEntity
8
0
100
AcDbLine
62
7
6
CONTINUOUS
10
155.5607441022
20
122.6134594999
11
66.4768996864
21
122.6134594999
0
LINE
5
336
100
AcDbEntity
8
0
100
AcDbLine
62
7
6
CONTINUOUS
10
79.1103146678
20
125.4705070573
11
82.1741088985
21
125.4705070573
0
LINE
5
337
100
AcDbEntity
8
0
100
AcDbLine
62
7
6
CONTINUOUS
10
139.8635349416
20
125.4705070573
11
142.9273291208
21
125.4705070573
0
LINE
5
338
100
AcDbEntity
8
0
100
AcDbLine
62
7
6
CONTINUOUS
10
66.2088012539
20
122.6671774980
11
78.7879256093
21
125.4354525495
0
LINE
5
339
100
AcDbEntity
8
0
100
AcDbLine
62
7
6
CONTINUOUS
10
66.1870342305
20
122.6624927978
11
66.1882745756
21
122.6627530814
0
LINE
5
33A
100
AcDbEntity
8
0
100
AcDbLine
62
7
6
CONTINUOUS
10
155.8506093735
20
122.6624914294
11
155.8495055786
21
122.6627231434
0
LINE
5
33B
100
AcDbEntity
8
0
100
AcDbLine
62
7
6
CONTINUOUS
10
143.2497181793
20
125.4354525495
11
155.8288425347
21
122.6671774980
0
LINE
5
33C
100
AcDbEntity
8
0
100
AcDbLine
62
7
6
CONTINUOUS
10
157.2321177057
20
104.0939409066
11
157.2321177057
21
121.1329780920
0
ARC
5
33D
100
AcDbEntity
8
0
100
AcDbCircle
62
7
6
CONTINUOUS
10
80.0188218943
20
173.2345295154
40
6.0000000000
100
AcDbArc
50
0.0000000000
51
90.0000000000
0
ARC
5
33E
100
AcDbEntity
8
0
100
AcDbCircle
62
7
6
CONTINUOUS
10
142.0188218943
20
173.2345295154
40
6.0000000000
100
AcDbArc
50
90.0000000000
51
180.0000000000
0
ARC
5
33F
100
AcDbEntity
8
0
100
AcDbCircle
62
7
6
CONTINUOUS
10
111.0188218943
20
212.1453046988
40
25.0000000000
100
AcDbArc
50
284.3874710161
51
255.6125187617
0
ARC
5
340
100
AcDbEntity
8
0
100
AcDbCircle
62
7
6
CONTINUOUS
10
140.8681296188
20
241.9946124233
40
4.0000000000
100
AcDbArc
50
22.5000000000
51
67.5000000000
0
ARC
5
341
100
AcDbEntity
8
0
100
AcDbCircle
62
7
6
CONTINUOUS
10
111.0188218943
20
254.3586005102
40
4.0000000000
100
AcDbArc
50
67.5000000000
51
112.5000000000
0
ARC
5
342
100
AcDbEntity
8
0
100
AcDbCircle
62
7
6
CONTINUOUS
10
81.1695141698
20
241.9946124233
40
4.0000000000
100
AcDbArc
50
112.5000000000
51
157.5000000000
0
ARC
5
343
100
AcDbEntity
8
0
100
AcDbCircle
62
7
6
CONTINUOUS
10
68.8055260829
20
212.1453046988
40
4.0000000000
100
AcDbArc
50
157.5000000000
51
202.5000000000
0
ARC
5
344
100
AcDbEntity
8
0
100
AcDbCircle
62
7
6
CONTINUOUS
10
153.2321177057
20
212.1453046988
40
4.0000000000
100
AcDbArc
50
337.5000000000
51
22.5000000000
0
ARC
5
345
100
AcDbEntity
8
0
100
AcDbCircle
62
7
6
CONTINUOUS
10
79.1103146678
20
180.7345295154
40
1.5000000000
100
AcDbArc
50
202.5000000000
51
270.0000000000
0
ARC
5
346
100
AcDbEntity
8
0
100
AcDbCircle
62
7
6
CONTINUOUS
10
142.9273291208
20
180.7345295154
40
1.5000000000
100
AcDbArc
50
270.0000000000
51
337.5000000000
0
ARC
5
347
100
AcDbEntity
8
DEFAULT_2
100
AcDbCircle
62
8
6
HIDDEN
10
295.3771295894
20
247.1453046988
40
10.0000000000
100
AcDbArc
50
180.0000000000
51
360.0000000000
0
ARC
5
348
100
AcDbEntity
8
0
100
AcDbCircle
62
7
6
CONTINUOUS
10
308.7663781232
20
185.9622888735
40
0.9999995571
100
AcDbArc
50
188.5536298127
51
261.0000000005
0
ARC
5
349
100
AcDbEntity
8
0
100
AcDbCircle
62
7
6
CONTINUOUS
10
286.8771295894
20
256.8586005102
40
1.5000000000
100
AcDbArc
50
90.0000000000
51
180.0000000000
0
ARC
5
34A
100
AcDbEntity
8
0
100
AcDbCircle
62
7
6
CONTINUOUS
10
303.8771295894
20
256.8586005102
40
1.5000000000
100
AcDbArc
50
0.0000000000
51
90.0000000000
0
ARC
5
34B
100
AcDbEntity
8
0
100
AcDbCircle
62
7
6
CONTINUOUS
10
274.3771295894
20
179.6945513365
40
4.0000000000
100
AcDbArc
50
99.0000000000
51
180.0000000000
0
ARC
5
34C
100
AcDbEntity
8
0
100
AcDbCircle
62
7
6
CONTINUOUS
10
316.3771295894
20
179.6945513365
40
4.0000000000
100
AcDbArc
50
0.0000000000
51
81.0000000000
0
ARC
5
34D
100
AcDbEntity
8
0
100
AcDbCircle
62
7
6
CONTINUOUS
10
325.3771295894
20
213.0549744772
40
20.0000000000
100
AcDbArc
50
180.0000000000
51
185.2084342388
0
ARC
5
34E
100
AcDbEntity
8
0
100
AcDbCircle
62
7
6
CONTINUOUS
10
265.3771295894
20
213.0549744772
40
20.0000000000
100
AcDbArc
50
354.7915657612
51
360.0000000000
0
ARC
5
34F
100
AcDbEntity
8
0
100
AcDbCircle
62
7
6
CONTINUOUS
10
306.7341771468
20
180.7345295154
40
1.5000000000
100
AcDbArc
50
270.0000000000
51
5.2084342388
0
ARC
5
350
100
AcDbEntity
8
0
100
AcDbCircle
62
7
6
CONTINUOUS
10
284.0200798349
20
180.7345054125
40
1.4999951794
100
AcDbArc
50
174.7906412809
51
270.0000839249
0
ARC
5
351
100
AcDbEntity
8
DEFAULT_2
100
AcDbCircle
62
8
6
HIDDEN
10
111.0188218943
20
112.6134594999
40
12.0000000000
100
AcDbArc
50
303.4808857557
51
56.5191037018
0
ARC
5
352
100
AcDbEntity
8
DEFAULT_2
100
AcDbCircle
62
8
6
HIDDEN
10
111.0188218943
20
112.6134594999
40
12.0000000000
100
AcDbArc
50
123.4808872512
51
236.5190802536
0
ARC
5
353
100
AcDbEntity
8
0
100
AcDbCircle
62
7
6
CONTINUOUS
10
132.8073437500
20
126.8000931649
40
1.0000001919
100
AcDbArc
50
213.0699257993
51
262.3939648488
0
ARC
5
354
100
AcDbEntity
8
0
100
AcDbCircle
62
7
6
CONTINUOUS
10
89.2303000087
20
126.8000931242
40
1.0000001920
100
AcDbArc
50
277.6060584425
51
326.9293957876
0
ARC
5
355
100
AcDbEntity
8
0
100
AcDbCircle
62
7
6
CONTINUOUS
10
89.2303000386
20
98.4268258349
40
1.0000001919
100
AcDbArc
50
33.0699257993
51
82.3939648488
0
ARC
5
356
100
AcDbEntity
8
0
100
AcDbCircle
62
7
6
CONTINUOUS
10
132.8073437799
20
98.4268258756
40
1.0000001920
100
AcDbArc
50
97.6060584425
51
146.9293957876
0
ARC
5
357
100
AcDbEntity
8
0
100
AcDbCircle
62
7
6
CONTINUOUS
10
111.0188218943
20
112.6134594999
40
25.0000000000
100
AcDbArc
50
32.4802036028
51
147.5197963972
0
ARC
5
358
100
AcDbEntity
8
0
100
AcDbCircle
62
7
6
CONTINUOUS
10
111.0188218943
20
112.6134594999
40
12.0000000000
100
AcDbArc
50
56.5191037018
51
123.4808872512
0
ARC
5
359
100
AcDbEntity
8
0
100
AcDbCircle
62
7
6
CONTINUOUS
10
111.0188218943
20
112.6134594999
40
12.0000000000
100
AcDbArc
50
236.5190802536
51
303.4808857557
0
ARC
5
35A
100
AcDbEntity
8
0
100
AcDbCircle
62
7
6
CONTINUOUS
10
111.0188218943
20
112.6134594999
40
25.0000000000
100
AcDbArc
50
212.4802036028
51
327.5197963972
0
SPLINE
5
35B
100
AcDbEntity
8
0
100
AcDbSpline
62
7
6
CONTINUOUS
70
0
71
3
72
15
73
11
74
9
42
0.0000001000
43
0.0000001000
44
0.0000000001
40
0.0000000000
40
0.0000000000
40
0.0000000000
40
0.0000000000
40
0.1302466786
40
0.2645440751
40
0.3871138469
40
0.5010926683
40
0.6147588689
40
0.7366670495
40
0.8701985093
40
1.0000000000
40
1.0000000000
40
1.0000000000
40
1.0000000000
10
117.2306715285
20
187.9293383049
30
0.0000000000
10
116.6962119987
20
187.7922369934
30
0.0000000000
10
115.6170312799
20
187.4897680839
30
0.0000000000
10
114.0318771181
20
187.0688480819
30
0.0000000000
10
112.4906303036
20
186.7548639358
30
0.0000000000
10
111.0061687259
20
186.6358110827
30
0.0000000000
10
109.5249268700
20
186.7586128999
30
0.0000000000
10
107.9912821071
20
187.0725645289
30
0.0000000000
10
106.4138585954
20
187.4916887318
30
0.0000000000
10
105.3396012290
20
187.7927064618
30
0.0000000000
10
104.8069685257
20
187.9293392511
30
0.0000000000
11
117.2306715285
21
187.9293383049
31
0.0000000000
11
115.6325680739
21
187.4979925315
31
0.0000000000
11
113.9795557124
21
187.0729940270
31
0.0000000000
11
112.4496744850
21
186.7797728191
31
0.0000000000
11
111.0049114365
21
186.6751530210
31
0.0000000000
11
109.5643772960
21
186.7830993110
31
0.0000000000
11
108.0430905320
21
187.0764889294
31
0.0000000000
11
106.3996132456
21
187.4994813236
31
0.0000000000
11
104.8069685257
21
187.9293392511
31
0.0000000000
0
SPLINE
5
35C
100
AcDbEntity
8
0
100
AcDbSpline
62
7
6
CONTINUOUS
70
0
71
3
72
8
73
4
74
2
42
0.0000001000
43
0.0000001000
44
0.0000000001
40
0.0000000000
40
0.0000000000
40
0.0000000000
40
0.0000000000
40
1.0000000000
40
1.0000000000
40
1.0000000000
40
1.0000000000
10
282.9765323930
20
185.8124992579
30
0.0000000000
10
282.9763960308
20
185.8114772624
30
0.0000000000
10
282.9762545699
20
185.8104559239
30
0.0000000000
10
282.9761086366
20
185.8094351999
30
0.0000000000
11
282.9765323930
21
185.8124992579
31
0.0000000000
11
282.9761086366
21
185.8094351999
31
0.0000000000
0
SPLINE
5
35D
100
AcDbEntity
8
0
100
AcDbSpline
62
7
6
CONTINUOUS
70
0
71
3
72
8
73
4
74
2
42
0.0000001000
43
0.0000001000
44
0.0000000001
40
0.0000000000
40
0.0000000000
40
0.0000000000
40
0.0000000000
40
1.0000000000
40
1.0000000000
40
1.0000000000
40
1.0000000000
10
282.9743388386
20
185.7981402222
30
0.0000000000
10
282.9580501151
20
185.7002647571
30
0.0000000000
10
282.9268703764
20
185.6042255628
30
0.0000000000
10
282.8823158198
20
185.5150569718
30
0.0000000000
11
282.9743388386
21
185.7981402222
31
0.0000000000
11
282.8823158198
21
185.5150569718
31
0.0000000000
0
SPLINE
5
35E
100
AcDbEntity
8
0
100
AcDbSpline
62
7
6
CONTINUOUS
70
0
71
3
72
11
73
7
74
5
42
0.0000001000
43
0.0000001000
44
0.0000000001
40
0.0000000000
40
0.0000000000
40
0.0000000000
40
0.0000000000
40
0.3145895474
40
0.6292771001
40
0.9440548724
40
1.0000000000
40
1.0000000000
40
1.0000000000
40
1.0000000000
10
282.8823158198
20
185.5150569718
30
0.0000000000
10
282.8377501297
20
185.4258660993
30
0.0000000000
10
282.7218376911
20
185.2612067848
30
0.0000000000
10
282.4827325805
20
185.0760999081
30
0.0000000000
10
282.2774652273
20
184.9988211298
30
0.0000000000
10
282.1618574695
20
184.9774061205
30
0.0000000000
10
282.1443365059
20
184.9746397680
30
0.0000000000
11
282.8823158198
21
185.5150569718
31
0.0000000000
11
282.7109922630
21
185.2715474478
31
0.0000000000
11
282.4754861943
21
185.0892268956
31
0.0000000000
11
282.1966454107
21
184.9843337170
31
0.0000000000
11
282.1443365059
21
184.9746397680
31
0.0000000000
0
SPLINE
5
35F
100
AcDbEntity
8
0
100
AcDbSpline
62
7
6
CONTINUOUS
70
0
71
3
72
10
73
6
74
4
42
0.0000001000
43
0.0000001000
44
0.0000000001
40
0.0000000000
40
0.0000000000
40
0.0000000000
40
0.0000000000
40
0.3707498733
40
0.6038815571
40
1.0000000000
40
1.0000000000
40
1.0000000000
40
1.0000000000
10
282.9777865883
20
185.8237470152
30
0.0000000000
10
282.9775004890
20
185.8205654113
30
0.0000000000
10
282.9769318778
20
185.8153939168
30
0.0000000000
10
282.9757677475
20
185.8068577657
30
0.0000000000
10
282.9749116617
20
185.8015039324
30
0.0000000000
10
282.9743388386
20
185.7981402222
30
0.0000000000
11
282.9777865883
21
185.8237470152
31
0.0000000000
11
282.9767516436
21
185.8142216717
31
0.0000000000
11
282.9759405255
21
185.8082514530
31
0.0000000000
11
282.9743388386
21
185.7981402222
31
0.0000000000
0
SPLINE
5
360
100
AcDbEntity
8
0
100
AcDbSpline
62
7
6
CONTINUOUS
70
0
71
3
72
8
73
4
74
2
42
0.0000001000
43
0.0000001000
44
0.0000000001
40
0.0000000000
40
0.0000000000
40
0.0000000000
40
0.0000000000
40
1.0000000000
40
1.0000000000
40
1.0000000000
40
1.0000000000
10
307.7778254318
20
185.8121680727
30
0.0000000000
10
307.7777273558
20
185.8129046520
30
0.0000000000
10
307.7776251823
20
185.8136755646
30
0.0000000000
10
307.7775212572
20
185.8144655250
30
0.0000000000
11
307.7778254318
21
185.8121680727
31
0.0000000000
11
307.7775212572
21
185.8144655250
31
0.0000000000
0
SPLINE
5
361
100
AcDbEntity
8
0
100
AcDbSpline
62
7
6
CONTINUOUS
70
0
71
3
72
8
73
4
74
2
42
0.0000001000
43
0.0000001000
44
0.0000000001
40
0.0000000000
40
0.0000000000
40
0.0000000000
40
0.0000000000
40
1.0000000000
40
1.0000000000
40
1.0000000000
40
1.0000000000
10
307.7775212572
20
185.8144655250
30
0.0000000000
10
307.7774093512
20
185.8153161504
30
0.0000000000
10
307.7772954144
20
185.8161888615
30
0.0000000000
10
307.7771823760
20
185.8170645741
30
0.0000000000
11
307.7775212572
21
185.8144655250
31
0.0000000000
11
307.7771823760
21
185.8170645741
31
0.0000000000
0
SPLINE
5
362
100
AcDbEntity
8
0
100
AcDbSpline
62
7
6
CONTINUOUS
70
0
71
3
72
8
73
4
74
2
42
0.0000001000
43
0.0000001000
44
0.0000000001
40
0.0000000000
40
0.0000000000
40
0.0000000000
40
0.0000000000
40
1.0000000000
40
1.0000000000
40
1.0000000000
40
1.0000000000
10
307.7775029294
20
185.8135540752
30
0.0000000000
10
307.7778871841
20
185.8109553984
30
0.0000000000
10
307.7781649400
20
185.8090814025
30
0.0000000000
10
307.7783552362
20
185.8078080478
30
0.0000000000
11
307.7775029294
21
185.8135540752
31
0.0000000000
11
307.7783552362
21
185.8078080478
31
0.0000000000
0
SPLINE
5
363
100
AcDbEntity
8
0
100
AcDbSpline
62
7
6
CONTINUOUS
70
0
71
3
72
9
73
5
74
3
42
0.0000001000
43
0.0000001000
44
0.0000000001
40
0.0000000000
40
0.0000000000
40
0.0000000000
40
0.0000000000
40
0.5161371116
40
1.0000000000
40
1.0000000000
40
1.0000000000
40
1.0000000000
10
307.7786021513
20
185.8063530980
30
0.0000000000
10
307.7784269653
20
185.8076879003
30
0.0000000000
10
307.7775963377
20
185.8137738846
30
0.0000000000
10
307.7766267543
20
185.8213376345
30
0.0000000000
10
307.7763034611
20
185.8241794935
30
0.0000000000
11
307.7786021513
21
185.8063530980
31
0.0000000000
11
307.7775325123
21
185.8143639781
31
0.0000000000
11
307.7763034611
21
185.8241794935
31
0.0000000000
0
SPLINE
5
364
100
AcDbEntity
8
0
100
AcDbSpline
62
7
6
CONTINUOUS
70
0
71
3
72
17
73
13
74
11
42
0.0000001000
43
0.0000001000
44
0.0000000001
40
0.0000000000
40
0.0000000000
40
0.0000000000
40
0.0000000000
40
0.1004392516
40
0.2299478285
40
0.3542353828
40
0.4720862143
40
0.5825026200
40
0.6846344257
40
0.7778242829
40
0.8616085275
40
0.9356760210
40
1.0000000000
40
1.0000000000
40
1.0000000000
40
1.0000000000
10
82.1741088440
20
99.7564146938
30
0.0000000000
10
82.3998645559
20
99.7564187455
30
0.0000000000
10
82.9167164546
20
99.7545621684
30
0.0000000000
10
83.7128785733
20
99.7451285565
30
0.0000000000
10
84.5480478155
20
99.7275378189
30
0.0000000000
10
85.3401260969
20
99.7035494986
30
0.0000000000
10
86.0821776888
20
99.6739471636
30
0.0000000000
10
86.7685424110
20
99.6397875808
30
0.0000000000
10
87.3947443767
20
99.6018783138
30
0.0000000000
10
87.9575758995
20
99.5613512325
30
0.0000000000
10
88.4551340645
20
99.5190834587
30
0.0000000000
10
88.7647679032
20
99.4882094402
30
0.0000000000
10
88.9084407780
20
99.4726043716
30
0.0000000000
11
82.1741088440
21
99.7564146938
31
0.0000000000
11
82.8513713812
21
99.7539827568
31
0.0000000000
11
83.7245906311
21
99.7436214658
31
0.0000000000
11
84.5624786863
21
99.7259119761
31
0.0000000000
11
85.3567828843
21
99.7017321876
31
0.0000000000
11
86.1007279681
21
99.6719353738
31
0.0000000000
11
86.7885448182
21
99.6375017127
31
0.0000000000
11
87.4157675721
21
99.5993440033
31
0.0000000000
11
87.9792493238
21
99.5585014380
31
0.0000000000
11
88.4768710763
21
99.5159277090
31
0.0000000000
11
88.9084407780
21
99.4726043716
31
0.0000000000
0
SPLINE
5
365
100
AcDbEntity
8
0
100
AcDbSpline
62
7
6
CONTINUOUS
70
0
71
3
72
8
73
4
74
2
42
0.0000001000
43
0.0000001000
44
0.0000000001
40
0.0000000000
40
0.0000000000
40
0.0000000000
40
0.0000000000
40
1.0000000000
40
1.0000000000
40
1.0000000000
40
1.0000000000
10
88.9084407780
20
99.4726043716
30
0.0000000000
10
89.0308444400
20
99.4593094643
30
0.0000000000
10
89.1530709332
20
99.4451036974
30
0.0000000000
10
89.2754374167
20
99.4294217728
30
0.0000000000
11
88.9084407780
21
99.4726043716
31
0.0000000000
11
89.2754374167
21
99.4294217728
31
0.0000000000
0
SPLINE
5
366
100
AcDbEntity
8
0
100
AcDbSpline
62
7
6
CONTINUOUS
70
0
71
3
72
8
73
4
74
2
42
0.0000001000
43
0.0000001000
44
0.0000000001
40
0.0000000000
40
0.0000000000
40
0.0000000000
40
0.0000000000
40
1.0000000000
40
1.0000000000
40
1.0000000000
40
1.0000000000
10
89.2754374167
20
99.4294217728
30
0.0000000000
10
89.3045015215
20
99.4256970511
30
0.0000000000
10
89.3335735237
20
99.4218890530
30
0.0000000000
10
89.3626258532
20
99.4179973975
30
0.0000000000
11
89.2754374167
21
99.4294217728
31
0.0000000000
11
89.3626258532
21
99.4179973975
31
0.0000000000
0
SPLINE
5
367
100
AcDbEntity
8
0
100
AcDbSpline
62
7
6
CONTINUOUS
70
0
71
3
72
9
73
5
74
3
42
0.0000001000
43
0.0000001000
44
0.0000000001
40
0.0000000000
40
0.0000000000
40
0.0000000000
40
0.0000000000
40
0.2636591451
40
1.0000000000
40
1.0000000000
40
1.0000000000
40
1.0000000000
10
78.7869476887
20
99.7916602523
30
0.0000000000
10
78.8148949133
20
99.7854939750
30
0.0000000000
10
78.9215896824
20
99.7651441725
30
0.0000000000
10
79.0303426752
20
99.7565021429
30
0.0000000000
10
79.1103146822
20
99.7564863014
30
0.0000000000
11
78.7869476887
21
99.7916602523
31
0.0000000000
11
78.8713000963
21
99.7755770312
31
0.0000000000
11
79.1103146822
21
99.7564863014
31
0.0000000000
0
SPLINE
5
368
100
AcDbEntity
8
0
100
AcDbSpline
62
7
6
CONTINUOUS
70
0
71
3
72
8
73
4
74
2
42
0.0000001000
43
0.0000001000
44
0.0000000001
40
0.0000000000
40
0.0000000000
40
0.0000000000
40
0.0000000000
40
1.0000000000
40
1.0000000000
40
1.0000000000
40
1.0000000000
10
79.1103146678
20
125.4705070573
30
0.0000000000
10
79.0013185845
20
125.4705070573
30
0.0000000000
10
78.8917926947
20
125.4584385954
30
0.0000000000
10
78.7848183672
20
125.4347024089
30
0.0000000000
11
79.1103146678
21
125.4705070573
31
0.0000000000
11
78.7848183672
21
125.4347024089
31
0.0000000000
0
SPLINE
5
369
100
AcDbEntity
8
0
100
AcDbSpline
62
7
6
CONTINUOUS
70
0
71
3
72
9
73
5
74
3
42
0.0000001000
43
0.0000001000
44
0.0000000001
40
0.0000000000
40
0.0000000000
40
0.0000000000
40
0.0000000000
40
0.3420847417
40
1.0000000000
40
1.0000000000
40
1.0000000000
40
1.0000000000
10
89.3626233310
20
125.8089246454
30
0.0000000000
10
89.3321104929
20
125.8048370466
30
0.0000000000
10
89.2428458797
20
125.7931560421
30
0.0000000000
10
89.1536595764
20
125.7822582101
30
0.0000000000
10
89.0949806281
20
125.7753649150
30
0.0000000000
11
89.3626233310
21
125.8089246454
31
0.0000000000
11
89.2710475326
21
125.7969369082
31
0.0000000000
11
89.0949806281
21
125.7753649150
31
0.0000000000
0
SPLINE
5
36A
100
AcDbEntity
8
0
100
AcDbSpline
62
7
6
CONTINUOUS
70
0
71
3
72
8
73
4
74
2
42
0.0000001000
43
0.0000001000
44
0.0000000001
40
0.0000000000
40
0.0000000000
40
0.0000000000
40
0.0000000000
40
1.0000000000
40
1.0000000000
40
1.0000000000
40
1.0000000000
10
89.0949806281
20
125.7753649150
30
0.0000000000
10
89.0847037910
20
125.7741576460
30
0.0000000000
10
89.0744268950
20
125.7729588598
30
0.0000000000
10
89.0641497477
20
125.7717682209
30
0.0000000000
11
89.0949806281
21
125.7753649150
31
0.0000000000
11
89.0641497477
21
125.7717682209
31
0.0000000000
0
SPLINE
5
36B
100
AcDbEntity
8
0
100
AcDbSpline
62
7
6
CONTINUOUS
70
0
71
3
72
8
73
4
74
2
42
0.0000001000
43
0.0000001000
44
0.0000000001
40
0.0000000000
40
0.0000000000
40
0.0000000000
40
0.0000000000
40
1.0000000000
40
1.0000000000
40
1.0000000000
40
1.0000000000
10
89.0641497477
20
125.7717682209
30
0.0000000000
10
89.0104427868
20
125.7655461052
30
0.0000000000
10
88.9567289645
20
125.7595464889
30
0.0000000000
10
88.9029808229
20
125.7537214989
30
0.0000000000
11
89.0641497477
21
125.7717682209
31
0.0000000000
11
88.9029808229
21
125.7537214989
31
0.0000000000
0
SPLINE
5
36C
100
AcDbEntity
8
0
100
AcDbSpline
62
7
6
CONTINUOUS
70
0
71
3
72
17
73
13
74
11
42
0.0000001000
43
0.0000001000
44
0.0000000001
40
0.0000000000
40
0.0000000000
40
0.0000000000
40
0.0000000000
40
0.0645484526
40
0.1388738168
40
0.2229478177
40
0.3164530441
40
0.4189192992
40
0.5296785121
40
0.6478686876
40
0.7724807963
40
0.9022848930
40
1.0000000000
40
1.0000000000
40
1.0000000000
40
1.0000000000
10
88.9029808229
20
125.7537214989
30
0.0000000000
10
88.7589217419
20
125.7381090017
30
0.0000000000
10
88.4484530616
20
125.7072182130
30
0.0000000000
10
87.9495648885
20
125.6649396984
30
0.0000000000
10
87.3852507399
20
125.6244107289
30
0.0000000000
10
86.7574457117
20
125.5865188092
30
0.0000000000
10
86.0694073529
20
125.5523986167
30
0.0000000000
10
85.3256735708
20
125.5228609353
30
0.0000000000
10
84.5319761516
20
125.4989682852
30
0.0000000000
10
83.6953296565
20
125.4814999069
30
0.0000000000
10
82.9045393127
20
125.4722845074
30
0.0000000000
10
82.3935627555
20
125.4705002793
30
0.0000000000
10
82.1741089054
20
125.4705042342
30
0.0000000000
11
88.9029808229
21
125.7537214989
31
0.0000000000
11
88.4702482917
21
125.7103771467
31
0.0000000000
11
87.9712921404
21
125.6677908334
31
0.0000000000
11
87.4063145251
21
125.6269464706
31
0.0000000000
11
86.7774748059
21
125.5888050833
31
0.0000000000
11
86.0879614753
21
125.5544099412
31
0.0000000000
11
85.3423091908
21
125.5246778528
31
0.0000000000
11
84.5463622685
21
125.5005929146
31
0.0000000000
11
83.7069671780
21
125.4830074165
31
0.0000000000
11
82.8324662084
21
125.4728020396
31
0.0000000000
11
82.1741089054
21
125.4705042342
31
0.0000000000
0
SPLINE
5
36D
100
AcDbEntity
8
0
100
AcDbSpline
62
7
6
CONTINUOUS
70
0
71
3
72
17
73
13
74
11
42
0.0000001000
43
0.0000001000
44
0.0000000001
40
0.0000000000
40
0.0000000000
40
0.0000000000
40
0.0000000000
40
0.1004392516
40
0.2299478285
40
0.3542353828
40
0.4720862143
40
0.5825026200
40
0.6846344257
40
0.7778242829
40
0.8616085275
40
0.9356760210
40
1.0000000000
40
1.0000000000
40
1.0000000000
40
1.0000000000
10
139.8635349446
20
125.4705043060
30
0.0000000000
10
139.6377792327
20
125.4705002543
30
0.0000000000
10
139.1209273340
20
125.4723568314
30
0.0000000000
10
138.3247652153
20
125.4817904433
30
0.0000000000
10
137.4895959731
20
125.4993811809
30
0.0000000000
10
136.6975176916
20
125.5233695012
30
0.0000000000
10
135.9554660998
20
125.5529718362
30
0.0000000000
10
135.2691013776
20
125.5871314191
30
0.0000000000
10
134.6428994119
20
125.6250406861
30
0.0000000000
10
134.0800678891
20
125.6655677674
30
0.0000000000
10
133.5825097241
20
125.7078355411
30
0.0000000000
10
133.2728758854
20
125.7387095597
30
0.0000000000
10
133.1292030106
20
125.7543146283
30
0.0000000000
11
139.8635349446
21
125.4705043060
31
0.0000000000
11
139.1862724073
21
125.4729362431
31
0.0000000000
11
138.3130531575
21
125.4832975341
31
0.0000000000
11
137.4751651022
21
125.5010070237
31
0.0000000000
11
136.6808609043
21
125.5251868122
31
0.0000000000
11
135.9369158205
21
125.5549836260
31
0.0000000000
11
135.2490989704
21
125.5894172872
31
0.0000000000
11
134.6218762165
21
125.6275749965
31
0.0000000000
11
134.0583944648
21
125.6684175618
31
0.0000000000
11
133.5607727123
21
125.7109912908
31
0.0000000000
11
133.1292030106
21
125.7543146283
31
0.0000000000
0
SPLINE
5
36E
100
AcDbEntity
8
0
100
AcDbSpline
62
7
6
CONTINUOUS
70
0
71
3
72
8
73
4
74
2
42
0.0000001000
43
0.0000001000
44
0.0000000001
40
0.0000000000
40
0.0000000000
40
0.0000000000
40
0.0000000000
40
1.0000000000
40
1.0000000000
40
1.0000000000
40
1.0000000000
10
133.1292030106
20
125.7543146283
30
0.0000000000
10
133.0067993485
20
125.7676095355
30
0.0000000000
10
132.8845728553
20
125.7818153025
30
0.0000000000
10
132.7622063719
20
125.7974972270
30
0.0000000000
11
133.1292030106
21
125.7543146283
31
0.0000000000
11
132.7622063719
21
125.7974972270
31
0.0000000000
0
SPLINE
5
36F
100
AcDbEntity
8
0
100
AcDbSpline
62
7
6
CONTINUOUS
70
0
71
3
72
8
73
4
74
2
42
0.0000001000
43
0.0000001000
44
0.0000000001
40
0.0000000000
40
0.0000000000
40
0.0000000000
40
0.0000000000
40
1.0000000000
40
1.0000000000
40
1.0000000000
40
1.0000000000
10
132.7622063719
20
125.7974972270
30
0.0000000000
10
132.7331422671
20
125.8012219487
30
0.0000000000
10
132.7040702648
20
125.8050299468
30
0.0000000000
10
132.6750179353
20
125.8089216023
30
0.0000000000
11
132.7622063719
21
125.7974972270
31
0.0000000000
11
132.6750179353
21
125.8089216023
31
0.0000000000
0
SPLINE
5
370
100
AcDbEntity
8
0
100
AcDbSpline
62
7
6
CONTINUOUS
70
0
71
3
72
9
73
5
74
3
42
0.0000001000
43
0.0000001000
44
0.0000000001
40
0.0000000000
40
0.0000000000
40
0.0000000000
40
0.0000000000
40
0.2636594348
40
1.0000000000
40
1.0000000000
40
1.0000000000
40
1.0000000000
10
143.2506962250
20
125.4352587199
30
0.0000000000
10
143.2227489592
20
125.4414250088
30
0.0000000000
10
143.1160541490
20
125.4617748239
30
0.0000000000
10
143.0073011134
20
125.4704168569
30
0.0000000000
10
142.9273291063
20
125.4704326984
30
0.0000000000
11
143.2506962250
21
125.4352587199
31
0.0000000000
11
143.1663436923
21
125.4513419687
31
0.0000000000
11
142.9273291063
21
125.4704326984
31
0.0000000000
0
SPLINE
5
371
100
AcDbEntity
8
0
100
AcDbSpline
62
7
6
CONTINUOUS
70
0
71
3
72
8
73
4
74
2
42
0.0000001000
43
0.0000001000
44
0.0000000001
40
0.0000000000
40
0.0000000000
40
0.0000000000
40
0.0000000000
40
1.0000000000
40
1.0000000000
40
1.0000000000
40
1.0000000000
10
142.9273291208
20
99.7564119425
30
0.0000000000
10
143.0363252041
20
99.7564119425
30
0.0000000000
10
143.1458510938
20
99.7684804044
30
0.0000000000
10
143.2528254214
20
99.7922165910
30
0.0000000000
11
142.9273291208
21
99.7564119425
31
0.0000000000
11
143.2528254214
21
99.7922165910
31
0.0000000000
0
SPLINE
5
372
100
AcDbEntity
8
0
100
AcDbSpline
62
7
6
CONTINUOUS
70
0
71
3
72
9
73
5
74
3
42
0.0000001000
43
0.0000001000
44
0.0000000001
40
0.0000000000
40
0.0000000000
40
0.0000000000
40
0.0000000000
40
0.3420847417
40
1.0000000000
40
1.0000000000
40
1.0000000000
40
1.0000000000
10
132.6750204576
20
99.4179943545
30
0.0000000000
10
132.7055332957
20
99.4220819532
30
0.0000000000
10
132.7947979089
20
99.4337629577
30
0.0000000000
10
132.8839842122
20
99.4446607897
30
0.0000000000
10
132.9426631604
20
99.4515540849
30
0.0000000000
11
132.6750204576
21
99.4179943545
31
0.0000000000
11
132.7665962560
21
99.4299820917
31
0.0000000000
11
132.9426631604
21
99.4515540849
31
0.0000000000
0
SPLINE
5
373
100
AcDbEntity
8
0
100
AcDbSpline
62
7
6
CONTINUOUS
70
0
71
3
72
8
73
4
74
2
42
0.0000001000
43
0.0000001000
44
0.0000000001
40
0.0000000000
40
0.0000000000
40
0.0000000000
40
0.0000000000
40
1.0000000000
40
1.0000000000
40
1.0000000000
40
1.0000000000
10
132.9426631604
20
99.4515540849
30
0.0000000000
10
132.9529399976
20
99.4527613538
30
0.0000000000
10
132.9632168936
20
99.4539601400
30
0.0000000000
10
132.9734940409
20
99.4551507790
30
0.0000000000
11
132.9426631604
21
99.4515540849
31
0.0000000000
11
132.9734940409
21
99.4551507790
31
0.0000000000
0
SPLINE
5
374
100
AcDbEntity
8
0
100
AcDbSpline
62
7
6
CONTINUOUS
70
0
71
3
72
8
73
4
74
2
42
0.0000001000
43
0.0000001000
44
0.0000000001
40
0.0000000000
40
0.0000000000
40
0.0000000000
40
0.0000000000
40
1.0000000000
40
1.0000000000
40
1.0000000000
40
1.0000000000
10
132.9734940409
20
99.4551507790
30
0.0000000000
10
133.0272010018
20
99.4613728946
30
0.0000000000
10
133.0809148241
20
99.4673725109
30
0.0000000000
10
133.1346629657
20
99.4731975009
30
0.0000000000
11
132.9734940409
21
99.4551507790
31
0.0000000000
11
133.1346629657
21
99.4731975009
31
0.0000000000
0
SPLINE
5
375
100
AcDbEntity
8
0
100
AcDbSpline
62
7
6
CONTINUOUS
70
0
71
3
72
17
73
13
74
11
42
0.0000001000
43
0.0000001000
44
0.0000000001
40
0.0000000000
40
0.0000000000
40
0.0000000000
40
0.0000000000
40
0.0645484526
40
0.1388738168
40
0.2229478177
40
0.3164530441
40
0.4189192992
40
0.5296785121
40
0.6478686876
40
0.7724807963
40
0.9022848930
40
1.0000000000
40
1.0000000000
40
1.0000000000
40
1.0000000000
10
133.1346629657
20
99.4731975009
30
0.0000000000
10
133.2787220467
20
99.4888099981
30
0.0000000000
10
133.5891907270
20
99.5197007868
30
0.0000000000
10
134.0880789001
20
99.5619793014
30
0.0000000000
10
134.6523930487
20
99.6025082709
30
0.0000000000
10
135.2801980769
20
99.6404001906
30
0.0000000000
10
135.9682364356
20
99.6745203831
30
0.0000000000
10
136.7119702178
20
99.7040580645
30
0.0000000000
10
137.5056676370
20
99.7279507146
30
0.0000000000
10
138.3423141321
20
99.7454190929
30
0.0000000000
10
139.1331044759
20
99.7546344924
30
0.0000000000
10
139.6440810331
20
99.7564187205
30
0.0000000000
10
139.8635348832
20
99.7564147657
30
0.0000000000
11
133.1346629657
21
99.4731975009
31
0.0000000000
11
133.5673954969
21
99.5165418531
31
0.0000000000
11
134.0663516482
21
99.5591281665
31
0.0000000000
11
134.6313292635
21
99.5999725292
31
0.0000000000
11
135.2601689827
21
99.6381139166
31
0.0000000000
11
135.9496823132
21
99.6725090587
31
0.0000000000
11
136.6953345978
21
99.7022411470
31
0.0000000000
11
137.4912815201
21
99.7263260852
31
0.0000000000
11
138.3306766106
21
99.7439115833
31
0.0000000000
11
139.2051775802
21
99.7541169603
31
0.0000000000
11
139.8635348832
21
99.7564147657
31
0.0000000000
0
SPLINE
5
376
100
AcDbEntity
8
0
100
AcDbSpline
62
7
6
CONTINUOUS
70
0
71
3
72
8
73
4
74
2
42
0.0000001000
43
0.0000001000
44
0.0000000001
40
0.0000000000
40
0.0000000000
40
0.0000000000
40
0.0000000000
40
1.0000000000
40
1.0000000000
40
1.0000000000
40
1.0000000000
10
155.8506096266
20
122.6624927833
30
0.0000000000
10
155.8433467279
20
122.6640206636
30
0.0000000000
10
155.8360909575
20
122.6655823447
30
0.0000000000
10
155.8288425382
20
122.6671774970
30
0.0000000000
11
155.8506096266
21
122.6624927833
31
0.0000000000
11
155.8288425382
21
122.6671774970
31
0.0000000000
0
SPLINE
5
377
100
AcDbEntity
8
0
100
AcDbSpline
62
7
6
CONTINUOUS
70
0
71
3
72
16
73
12
74
10
42
0.0000001000
43
0.0000001000
44
0.0000000001
40
0.0000000000
40
0.0000000000
40
0.0000000000
40
0.0000000000
40
0.0828698742
40
0.2624591371
40
0.4255198345
40
0.5744781768
40
0.7082961811
40
0.8194056446
40
0.9014484026
40
0.9711367402
40
1.0000000000
40
1.0000000000
40
1.0000000000
40
1.0000000000
10
157.2320297354
20
121.1326993680
30
0.0000000000
10
157.2320401860
20
121.1950257384
30
0.0000000000
10
157.2199121859
20
121.3925168460
30
0.0000000000
10
157.1373974877
20
121.7037606308
30
0.0000000000
10
156.9545219365
20
122.0272040459
30
0.0000000000
10
156.7259779136
20
122.2739480444
30
0.0000000000
10
156.4836676841
20
122.4450733779
30
0.0000000000
10
156.2612665636
20
122.5493564076
30
0.0000000000
10
156.0739306685
20
122.6101075158
30
0.0000000000
10
155.9427057750
20
122.6426005531
30
0.0000000000
10
155.8706431194
20
122.6582839592
30
0.0000000000
10
155.8495062582
20
122.6627263770
30
0.0000000000
11
157.2320297354
21
121.1326993680
31
0.0000000000
11
157.2205166783
21
121.3191889509
31
0.0000000000
11
157.1174304326
21
121.7089307080
31
0.0000000000
11
156.9372926751
21
122.0275783159
31
0.0000000000
11
156.7101690582
21
122.2729908699
31
0.0000000000
11
156.4649449133
21
122.4464934778
31
0.0000000000
11
156.2394154330
21
122.5530148498
31
0.0000000000
11
156.0645089599
21
122.6106912715
31
0.0000000000
11
155.9128149647
21
122.6489217251
31
0.0000000000
11
155.8495062582
21
122.6627263770
31
0.0000000000
0
SPLINE
5
378
100
AcDbEntity
8
0
100
AcDbSpline
62
7
6
CONTINUOUS
70
0
71
3
72
8
73
4
74
2
42
0.0000001000
43
0.0000001000
44
0.0000000001
40
0.0000000000
40
0.0000000000
40
0.0000000000
40
0.0000000000
40
1.0000000000
40
1.0000000000
40
1.0000000000
40
1.0000000000
10
66.2089544857
20
122.6672112244
30
0.0000000000
10
66.2017499202
20
122.6656252314
30
0.0000000000
10
66.1945380904
20
122.6640723046
30
0.0000000000
10
66.1873192151
20
122.6625527675
30
0.0000000000
11
66.2089544857
21
122.6672112244
31
0.0000000000
11
66.1873192151
21
122.6625527675
31
0.0000000000
0
SPLINE
5
379
100
AcDbEntity
8
0
100
AcDbSpline
62
7
6
CONTINUOUS
70
0
71
3
72
8
73
4
74
2
42
0.0000001000
43
0.0000001000
44
0.0000000001
40
0.0000000000
40
0.0000000000
40
0.0000000000
40
0.0000000000
40
1.0000000000
40
1.0000000000
40
1.0000000000
40
1.0000000000
10
66.1882741651
20
122.6627548491
30
0.0000000000
10
66.1655816117
20
122.6579864979
30
0.0000000000
10
66.1429254043
20
122.6530442613
30
0.0000000000
10
66.1203147836
20
122.6478966783
30
0.0000000000
11
66.1882741651
21
122.6627548491
31
0.0000000000
11
66.1203147836
21
122.6478966783
31
0.0000000000
0
SPLINE
5
37A
100
AcDbEntity
8
0
100
AcDbSpline
62
7
6
CONTINUOUS
70
0
71
3
72
15
73
11
74
9
42
0.0000001000
43
0.0000001000
44
0.0000000001
40
0.0000000000
40
0.0000000000
40
0.0000000000
40
0.0000000000
40
0.0720532941
40
0.1585991918
40
0.2764025164
40
0.4166962835
40
0.5713141591
40
0.7380536583
40
0.9196865091
40
1.0000000000
40
1.0000000000
40
1.0000000000
40
1.0000000000
10
66.1203147836
20
122.6478966783
30
0.0000000000
10
66.0693626183
20
122.6362967975
30
0.0000000000
10
65.9577194579
20
122.6084685922
30
0.0000000000
10
65.7669973695
20
122.5458869796
30
0.0000000000
10
65.5405791749
20
122.4375777309
30
0.0000000000
10
65.2965670145
20
122.2608335587
30
0.0000000000
10
65.0707852148
20
122.0099194439
30
0.0000000000
10
64.8940000322
20
121.6867511821
30
0.0000000000
10
64.8166065314
20
121.3821932049
30
0.0000000000
10
64.8055933512
20
121.1912318147
30
0.0000000000
10
64.8056045042
20
121.1327055411
30
0.0000000000
11
66.1203147836
21
122.6478966783
31
0.0000000000
11
65.9683768420
21
122.6093435981
31
0.0000000000
11
65.7897769442
21
122.5497440687
31
0.0000000000
11
65.5588887220
21
122.4385169663
31
0.0000000000
11
65.3118542225
21
122.2592749271
31
0.0000000000
11
65.0869504980
21
122.0091443520
31
0.0000000000
11
64.9128758869
21
121.6908971634
31
0.0000000000
11
64.8157569948
21
121.3078732967
31
0.0000000000
11
64.8056045042
21
121.1327055411
31
0.0000000000
0
SPLINE
5
37B
100
AcDbEntity
8
0
100
AcDbSpline
62
7
6
CONTINUOUS
70
0
71
3
72
8
73
4
74
2
42
0.0000001000
43
0.0000001000
44
0.0000000001
40
0.0000000000
40
0.0000000000
40
0.0000000000
40
0.0000000000
40
1.0000000000
40
1.0000000000
40
1.0000000000
40
1.0000000000
10
66.1870341749
20
102.5644262137
30
0.0000000000
10
66.1942970715
20
102.5628983339
30
0.0000000000
10
66.2015528399
20
102.5613366534
30
0.0000000000
10
66.2088012572
20
102.5597415015
30
0.0000000000
11
66.1870341749
21
102.5644262137
31
0.0000000000
11
66.2088012572
21
102.5597415015
31
0.0000000000
0
SPLINE
5
37C
100
AcDbEntity
8
0
100
AcDbSpline
62
7
6
CONTINUOUS
70
0
71
3
72
16
73
12
74
10
42
0.0000001000
43
0.0000001000
44
0.0000000001
40
0.0000000000
40
0.0000000000
40
0.0000000000
40
0.0000000000
40
0.0828609753
40
0.2624455708
40
0.4255069014
40
0.5744704890
40
0.7082941294
40
0.8194042785
40
0.9014503274
40
0.9711415161
40
1.0000000000
40
1.0000000000
40
1.0000000000
40
1.0000000000
10
64.8056141181
20
104.0942145036
30
0.0000000000
10
64.8056037457
20
104.0318948357
30
0.0000000000
10
64.8177300748
20
103.8344140208
30
0.0000000000
10
64.9002376189
20
103.5231785626
30
0.0000000000
10
65.0831082824
20
103.1997311889
30
0.0000000000
10
65.3116556511
20
102.9529780610
30
0.0000000000
10
65.5539728331
20
102.7818470520
30
0.0000000000
10
65.7763806436
20
102.6775613324
30
0.0000000000
10
65.9637213969
20
102.6168083836
30
0.0000000000
10
66.0949476216
20
102.5843163352
30
0.0000000000
10
66.1670089245
20
102.5686334261
30
0.0000000000
10
66.1881422954
20
102.5641917608
30
0.0000000000
11
64.8056141181
21
104.0942145036
31
0.0000000000
11
64.8171249598
21
103.9077449010
31
0.0000000000
11
64.9202027975
21
103.5180116855
31
0.0000000000
11
65.1003359789
21
103.1993597853
31
0.0000000000
11
65.3274648939
21
102.9539360120
31
0.0000000000
11
65.5726989818
21
102.7804254619
31
0.0000000000
11
65.7982299669
21
102.6739035708
31
0.0000000000
11
65.9731435275
21
102.6162249518
31
0.0000000000
11
66.1248440083
21
102.5779939324
31
0.0000000000
11
66.1881422954
21
102.5641917608
31
0.0000000000
0
SPLINE
5
37D
100
AcDbEntity
8
0
100
AcDbSpline
62
7
6
CONTINUOUS
70
0
71
3
72
8
73
4
74
2
42
0.0000001000
43
0.0000001000
44
0.0000000001
40
0.0000000000
40
0.0000000000
40
0.0000000000
40
0.0000000000
40
1.0000000000
40
1.0000000000
40
1.0000000000
40
1.0000000000
10
155.8286890754
20
102.5597077253
30
0.0000000000
10
155.8358938401
20
102.5612937628
30
0.0000000000
10
155.8431058694
20
102.5628467323
30
0.0000000000
10
155.8503249447
20
102.5643663104
30
0.0000000000
11
155.8286890754
21
102.5597077253
31
0.0000000000
11
155.8503249447
21
102.5643663104
31
0.0000000000
0
SPLINE
5
37E
100
AcDbEntity
8
0
100
AcDbSpline
62
7
6
CONTINUOUS
70
0
71
3
72
8
73
4
74
2
42
0.0000001000
43
0.0000001000
44
0.0000000001
40
0.0000000000
40
0.0000000000
40
0.0000000000
40
0.0000000000
40
1.0000000000
40
1.0000000000
40
1.0000000000
40
1.0000000000
10
155.8493745768
20
102.5641650545
30
0.0000000000
10
155.8720704955
20
102.5689341342
30
0.0000000000
10
155.8947300535
20
102.5738771655
30
0.0000000000
10
155.9173439992
20
102.5790256473
30
0.0000000000
11
155.8493745768
21
102.5641650545
31
0.0000000000
11
155.9173439992
21
102.5790256473
31
0.0000000000
0
SPLINE
5
37F
100
AcDbEntity
8
0
100
AcDbSpline
62
7
6
CONTINUOUS
70
0
71
3
72
15
73
11
74
9
42
0.0000001000
43
0.0000001000
44
0.0000000001
40
0.0000000000
40
0.0000000000
40
0.0000000000
40
0.0000000000
40
0.0720501009
40
0.1585925344
40
0.2763937379
40
0.4166808671
40
0.5712932946
40
0.7380335209
40
0.9196736325
40
1.0000000000
40
1.0000000000
40
1.0000000000
40
1.0000000000
10
155.9173439992
20
102.5790256473
30
0.0000000000
10
155.9682935784
20
102.5906252585
30
0.0000000000
10
156.0799312240
20
102.6184531885
30
0.0000000000
10
156.2706464073
20
102.6810320221
30
0.0000000000
10
156.4970555636
20
102.7893366780
30
0.0000000000
10
156.7410592665
20
102.9660718410
30
0.0000000000
10
156.9668388476
20
103.2169741492
30
0.0000000000
10
157.1436318543
20
103.5401381038
30
0.0000000000
10
157.2210351345
20
103.8447079518
30
0.0000000000
10
157.2320505713
20
104.0356832097
30
0.0000000000
10
157.2320393442
20
104.0942186001
30
0.0000000000
11
155.9173439992
21
102.5790256473
31
0.0000000000
11
156.0692741982
21
102.6175777928
31
0.0000000000
11
156.2478660708
21
102.6771745736
31
0.0000000000
11
156.4787492068
21
102.7883986346
31
0.0000000000
11
156.7257722145
21
102.9676293105
31
0.0000000000
11
156.9506715151
21
103.2177456514
31
0.0000000000
11
157.1247537111
21
103.5359884161
31
0.0000000000
11
157.2218839361
21
103.9190236565
31
0.0000000000
11
157.2320393442
21
104.0942186001
31
0.0000000000
0
ENDSEC
0
SECTION
2
OBJECTS
0
DICTIONARY
5
380
100
AcDbDictionary
3
ACAD_GROUP
350
381
3
ACAD_MLINESTYLE
350
382
0
DICTIONARY
5
381
102
{ACAD_REACTORS
330
380
102
}
100
AcDbDictionary
0
DICTIONARY
5
382
102
{ACAD_REACTORS
330
380
102
}
100
AcDbDictionary
3
STANDARD
350
383
0
MLINESTYLE
5
383
102
{ACAD_REACTORS
330
382
102
}
100
AcDbMlineStyle
2
STANDARD
70
0
3

62
256
51
90.0
52
90.0
71
2
49
0.5
62
256
6
BYLAYER
49
-0.5
62
256
6
BYLAYER
0
ENDSEC
0
EOF
