999
DXF file: C:\Aktuell-Internet\CAD-Daten\2rm-m20.dxf
999
Pro/ENGINEER 2001400 by Parametric Technology Corporation
0
SECTION
2
HEADER
9
$ACADVER
1
AC1014
9
$EXTMAX
10
420.0000000000
20
297.0000000000
9
$EXTMIN
10
0.0000000000
20
0.0000000000
9
$LIMMIN
10
0.0000000000
20
0.0000000000
9
$LIMMAX
10
420.0000000000
20
297.0000000000
9
$VIEWCTR
10
210.0000000000
20
148.5000000000
9
$VIEWSIZE
40
297.0000000000
9
$CLAYER
8
0
9
$LTSCALE
40
23.1000000000
9
$CELTYPE
6
BYLAYER
9
$DIMSCALE
40
1
9
$DIMASZ
40
3.5000000000
9
$DIMEXO
40
2.6250000000
9
$DIMDLI
40
15.9600000000
9
$DIMEXE
40
7.5600000000
9
$DIMCEN
40
3.7800000000
9
$DIMLFAC
40
1.0000000000
9
$DIMTXT
40
3.5000000000
9
$DIMTOL
70
1
9
$DIMTFAC
40
0.6000000000
9
$DIMTP
40
0.0050000000
9
$DIMTM
40
0.0050000000
9
$HANDSEED
5
3DA
0
ENDSEC
0
SECTION
2
CLASSES
0
ENDSEC
0
SECTION
2
TABLES
0
TABLE
2
VPORT
5
8
100
AcDbSymbolTable
70
2
0
VPORT
5
1F4
100
AcDbSymbolTableRecord
100
AcDbViewportTableRecord
2
*ACTIVE
70
0
10
0.0
20
0.0
11
1.0
21
1.0
12
210.0000000000
22
148.5000000000
13
0.0
23
0.0
14
1.0
24
1.0
15
0.0
25
0.0
16
0.0
26
0.0
36
1.0
17
0.0
27
0.0
37
0.0
40
297.0000000000
41
1.4141414141
42
50.0
43
0.0
44
0.0
50
0.0
51
0.0
71
0
72
100
73
1
74
1
75
0
76
0
77
0
78
0
0
ENDTAB
0
TABLE
2
LTYPE
5
5
100
AcDbSymbolTable
70
6
0
LTYPE
5
14
100
AcDbSymbolTableRecord
100
AcDbLinetypeTableRecord
2
BYBLOCK
70
0
3

72
65
73
0
40
0.0
0
LTYPE
5
15
100
AcDbSymbolTableRecord
100
AcDbLinetypeTableRecord
2
BYLAYER
70
0
3

72
65
73
0
40
0.0
0
LTYPE
5
16
100
AcDbSymbolTableRecord
100
AcDbLinetypeTableRecord
2
CONTINUOUS
70
64
3
Solid line
72
65
73
0
40
0
0
LTYPE
5
1F5
100
AcDbSymbolTableRecord
100
AcDbLinetypeTableRecord
2
CENTER
70
64
3
____ _ ____ _ ____ _ ____ _ ____ _ ____ _ ____
72
65
73
4
40
0.6
49
0.375
74
0
49
-0.075
74
0
49
0.075
74
0
49
-0.075
74
0
0
LTYPE
5
1F6
100
AcDbSymbolTableRecord
100
AcDbLinetypeTableRecord
2
HIDDEN
70
64
3
- - - - - - - - - - - - - - - - - - - -
72
65
73
2
40
0.2
49
0.1
74
0
49
-0.1
74
0
0
LTYPE
5
1F7
100
AcDbSymbolTableRecord
100
AcDbLinetypeTableRecord
2
PHANTOM
70
64
3
_____ _ _ _____ _ _ _____ _ _ _____
72
65
73
6
40
0.8
49
0.45
74
0
49
-0.05
74
0
49
0.1
74
0
49
-0.05
74
0
49
0.1
74
0
49
-0.05
74
0
0
LTYPE
5
1F8
100
AcDbSymbolTableRecord
100
AcDbLinetypeTableRecord
2
DOT
70
64
3
. . . . . . . . . . . . . . . . . . . .
72
65
73
2
40
0.2
49
0.1
74
0
49
-0.1
74
0
0
LTYPE
5
1F9
100
AcDbSymbolTableRecord
100
AcDbLinetypeTableRecord
2
DASHED
70
64
3
- - - - - - - - - - - - - - - - - - - -
72
65
73
2
40
0.2
49
0.1
74
0
49
-0.1
74
0
0
ENDTAB
0
TABLE
2
LAYER
5
2
100
AcDbSymbolTable
70
36
0
LAYER
5
10
100
AcDbSymbolTableRecord
100
AcDbLayerTableRecord
2
0
70
0
62
7
6
CONTINUOUS
0
LAYER
5
1FA
100
AcDbSymbolTableRecord
100
AcDbLayerTableRecord
2
DEFAULT_1
70
0
62
7
6
CENTER
0
LAYER
5
1FB
100
AcDbSymbolTableRecord
100
AcDbLayerTableRecord
2
DEFAULT_2
70
0
62
8
6
HIDDEN
0
LAYER
5
1FC
100
AcDbSymbolTableRecord
100
AcDbLayerTableRecord
2
DEFAULT_3
70
0
62
7
6
PHANTOM
0
ENDTAB
0
TABLE
2
STYLE
5
3
100
AcDbSymbolTable
70
1
0
STYLE
5
11
100
AcDbSymbolTableRecord
100
AcDbTextStyleTableRecord
2
STANDARD
70
0
40
0.0
41
1.0
50
0.0
71
0
42
0.0
3
txt
4

0
STYLE
5
1FD
100
AcDbSymbolTableRecord
100
AcDbTextStyleTableRecord
2
TEXTSTYLE_0
70
0
40
0.0
41
0.80
50
0.0
71
0
42
0.2
3
txt
4

0
ENDTAB
0
TABLE
2
VIEW
5
6
100
AcDbSymbolTable
70
0
0
ENDTAB
0
TABLE
2
UCS
5
7
100
AcDbSymbolTable
70
0
0
ENDTAB
0
TABLE
2
APPID
5
9
100
AcDbSymbolTable
70
1
0
APPID
5
1FE
100
AcDbSymbolTableRecord
100
AcDbRegAppTableRecord
2
ACAD
70
0
0
ENDTAB
0
TABLE
2
DIMSTYLE
5
A
100
AcDbSymbolTable
70
1
0
DIMSTYLE
105
1FF
100
AcDbSymbolTableRecord
100
AcDbDimStyleTableRecord
2
STANDARD
70
0
3

4

5

6

7

40
1.0
41
0.18
42
0.0625
43
0.38
44
0.18
45
0.0
46
0.0
47
0.0050000000
48
0.0050000000
140
3.5000000000
141
0.09
142
0.0
143
25.4
144
1.0000000000
145
0.0
146
0.6000000000
147
0.09
71
1
72
0
73
1
74
1
75
0
76
0
77
0
78
0
170
0
171
2
172
0
173
0
174
0
175
0
176
0
177
0
178
0
270
2
271
3
272
4
273
2
274
2
340
11
275
0
280
0
281
0
282
0
283
1
284
0
285
0
286
0
287
3
288
0
0
ENDTAB
0
TABLE
2
BLOCK_RECORD
5
1
100
AcDbSymbolTable
70
0
0
BLOCK_RECORD
5
1B
100
AcDbSymbolTableRecord
100
AcDbBlockTableRecord
2
*MODEL_SPACE
0
BLOCK_RECORD
5
1C
100
AcDbSymbolTableRecord
100
AcDbBlockTableRecord
2
*PAPER_SPACE
0
ENDTAB
0
ENDSEC
0
SECTION
2
BLOCKS
0
BLOCK
5
1E
100
AcDbEntity
8
0
100
AcDbBlockBegin
2
*MODEL_SPACE
70
0
10
0.0
20
0.0
30
0.0
3
*MODEL_SPACE
1

0
ENDBLK
5
1F
100
AcDbEntity
8
0
100
AcDbBlockEnd
0
BLOCK
5
20
100
AcDbEntity
8
0
100
AcDbBlockBegin
2
*PAPER_SPACE
70
0
10
0.0
20
0.0
30
0.0
3
*PAPER_SPACE
1

0
ENDBLK
5
21
100
AcDbEntity
8
0
100
AcDbBlockEnd
0
ENDSEC
0
SECTION
2
ENTITIES
0
TEXT
5
200
100
AcDbEntity
8
0
100
AcDbText
62
2
6
CONTINUOUS
10
81.2780813771
20
115.2004444279
7
TEXTSTYLE_0
40
3.5000000000
1
RUD
72
5
11
89.9447480437
21
115.2004444279
100
AcDbText
0
TEXT
5
201
100
AcDbEntity
8
0
100
AcDbText
62
2
6
CONTINUOUS
10
81.8747532804
20
107.2448190506
7
TEXTSTYLE_0
40
3.5000000000
1
RM M20
72
5
11
98.8747532804
21
107.2448190506
100
AcDbText
0
TEXT
5
202
100
AcDbEntity
8
0
100
AcDbText
62
2
6
CONTINUOUS
10
293.2087147939
20
195.0055178668
7
TEXTSTYLE_0
40
3.5000000000
1
RUD
50
90.0000000000
72
5
11
293.2087147939
21
203.6721845334
100
AcDbText
0
TEXT
5
203
100
AcDbEntity
8
0
100
AcDbText
62
2
6
CONTINUOUS
10
301.8120287157
20
195.1591484725
7
TEXTSTYLE_0
40
3.5000000000
1
RM M20
50
90.0000000000
72
5
11
301.8120287157
21
212.1591484725
100
AcDbText
0
LINE
5
204
100
AcDbEntity
8
0
100
AcDbLine
62
7
6
CONTINUOUS
10
0.0000000000
20
0.0000000000
11
0.0000000000
21
297.0000000000
0
LINE
5
205
100
AcDbEntity
8
0
100
AcDbLine
62
7
6
CONTINUOUS
10
0.0000000000
20
0.0000000000
11
420.0000000000
21
0.0000000000
0
LINE
5
206
100
AcDbEntity
8
0
100
AcDbLine
62
7
6
CONTINUOUS
10
0.0000000000
20
297.0000000000
11
420.0000000000
21
297.0000000000
0
LINE
5
207
100
AcDbEntity
8
0
100
AcDbLine
62
7
6
CONTINUOUS
10
420.0000000000
20
0.0000000000
11
420.0000000000
21
297.0000000000
0
LINE
5
208
100
AcDbEntity
8
0
100
AcDbLine
62
7
6
CONTINUOUS
10
91.5188219928
20
176.7248735000
11
91.0188219928
21
177.2248735000
0
LINE
5
209
100
AcDbEntity
8
0
100
AcDbLine
62
7
6
CONTINUOUS
10
73.6956866760
20
213.0645792740
11
73.7691456537
21
213.2556072295
0
LINE
5
20A
100
AcDbEntity
8
0
100
AcDbLine
62
7
6
CONTINUOUS
10
73.7691456537
20
213.2556072295
11
83.5969310561
21
236.9819800361
0
LINE
5
20B
100
AcDbEntity
8
0
100
AcDbLine
62
7
6
CONTINUOUS
10
91.5188219928
20
176.7248735000
11
130.5188219928
21
176.7248735000
0
LINE
5
20C
100
AcDbEntity
8
0
100
AcDbLine
62
7
6
CONTINUOUS
10
91.0188219928
20
177.2248735000
11
131.0188219928
21
177.2248735000
0
LINE
5
20D
100
AcDbEntity
8
DEFAULT_2
100
AcDbLine
62
8
6
HIDDEN
10
101.0188219928
20
178.2248735000
11
121.0188219928
21
178.2248735000
0
LINE
5
20E
100
AcDbEntity
8
0
100
AcDbLine
62
7
6
CONTINUOUS
10
83.8474303854
20
185.8630080859
11
73.7691456537
21
210.1941397705
0
LINE
5
20F
100
AcDbEntity
8
0
100
AcDbLine
62
7
6
CONTINUOUS
10
79.9978526020
20
217.9917840530
11
79.9980376148
21
217.7852973510
0
LINE
5
210
100
AcDbEntity
8
0
100
AcDbLine
62
7
6
CONTINUOUS
10
83.5083144092
20
230.1934423019
11
83.4093287372
21
229.9602479507
0
LINE
5
211
100
AcDbEntity
8
0
100
AcDbLine
62
7
6
CONTINUOUS
10
79.2519495868
20
220.1660766174
11
79.0292342090
21
219.6413893272
0
LINE
5
212
100
AcDbEntity
8
0
100
AcDbLine
62
7
6
CONTINUOUS
10
82.7906725788
20
228.5027818252
11
82.5679552936
21
227.9780950118
0
LINE
5
213
100
AcDbEntity
8
0
100
AcDbLine
62
7
6
CONTINUOUS
10
78.4848139667
20
218.3588189651
11
77.8909037494
21
216.9596519042
0
LINE
5
214
100
AcDbEntity
8
0
100
AcDbLine
62
7
6
CONTINUOUS
10
81.8255656146
20
226.2291354705
11
81.6028483295
21
225.7044477035
0
LINE
5
215
100
AcDbEntity
8
0
100
AcDbLine
62
7
6
CONTINUOUS
10
80.2170565509
20
222.4397239257
11
79.9943392658
21
221.9150361587
0
LINE
5
216
100
AcDbEntity
8
0
100
AcDbLine
62
7
6
CONTINUOUS
10
83.7567026996
20
229.7439946700
11
83.8556883716
21
229.9771890212
0
LINE
5
217
100
AcDbEntity
8
0
100
AcDbLine
62
7
6
CONTINUOUS
10
78.4114992999
20
217.1514882614
11
78.8816798114
21
218.2591628600
0
LINE
5
218
100
AcDbEntity
8
0
100
AcDbLine
62
7
6
CONTINUOUS
10
83.8320506000
20
228.6799687911
11
83.9557822132
21
228.9714631606
0
LINE
5
219
100
AcDbEntity
8
0
100
AcDbLine
62
7
6
CONTINUOUS
10
84.7458155536
20
232.9018888046
11
84.5229132556
21
232.5836877395
0
LINE
5
21A
100
AcDbEntity
8
0
100
AcDbLine
62
7
6
CONTINUOUS
10
83.7312167072
20
230.5116433669
11
83.5083144092
21
230.1934423019
0
LINE
5
21B
100
AcDbEntity
8
0
100
AcDbLine
62
7
6
CONTINUOUS
10
83.8556883716
20
229.9771890212
11
84.0538428211
21
230.2370919753
0
LINE
5
21C
100
AcDbEntity
8
0
100
AcDbLine
62
7
6
CONTINUOUS
10
84.8950331592
20
232.4257325698
11
85.0931876087
21
232.6856336166
0
LINE
5
21D
100
AcDbEntity
8
0
100
AcDbLine
62
7
6
CONTINUOUS
10
96.0534785175
20
241.0923089553
11
94.0904887104
21
239.9589757491
0
LINE
5
21E
100
AcDbEntity
8
0
100
AcDbLine
62
7
6
CONTINUOUS
10
92.5316431903
20
239.0589742233
11
92.1852324390
21
238.8589753677
0
LINE
5
21F
100
AcDbEntity
8
0
100
AcDbLine
62
7
6
CONTINUOUS
10
94.5919287586
20
239.7571210433
11
96.2662451648
21
240.7237863113
0
LINE
5
220
100
AcDbEntity
8
0
100
AcDbLine
62
7
6
CONTINUOUS
10
97.6792567157
20
241.3430451919
11
97.3905814075
21
241.1763791610
0
LINE
5
221
100
AcDbEntity
8
0
100
AcDbLine
62
7
6
CONTINUOUS
10
85.7617154567
20
239.1467644367
11
109.4880882634
21
248.9745498391
0
LINE
5
222
100
AcDbEntity
8
0
100
AcDbLine
62
7
6
CONTINUOUS
10
83.7073939228
20
229.4209107925
11
83.7567026996
21
229.7439946700
0
LINE
5
223
100
AcDbEntity
8
0
100
AcDbLine
62
7
6
CONTINUOUS
10
84.8457243823
20
232.1026486923
11
84.8950331592
21
232.4257325698
0
LINE
5
224
100
AcDbEntity
8
0
100
AcDbLine
62
7
6
CONTINUOUS
10
84.5229132556
20
232.5836877395
11
84.4488585376
21
232.2023038436
0
LINE
5
225
100
AcDbEntity
8
0
100
AcDbLine
62
7
6
CONTINUOUS
10
83.4093287372
20
229.9602479507
11
83.3105299854
21
229.5205678512
0
LINE
5
226
100
AcDbEntity
8
0
100
AcDbLine
62
7
6
CONTINUOUS
10
79.9980376148
20
217.7852973510
11
79.5278571033
21
216.6776232292
0
LINE
5
227
100
AcDbEntity
8
0
100
AcDbLine
62
7
6
CONTINUOUS
10
79.9743998432
20
216.4880771209
11
80.3950865650
21
217.4791535903
0
LINE
5
228
100
AcDbEntity
8
0
100
AcDbLine
62
7
6
CONTINUOUS
10
87.0053084278
20
229.7410993148
11
86.3124125385
21
228.1087369491
0
LINE
5
229
100
AcDbEntity
8
0
100
AcDbLine
62
7
6
CONTINUOUS
10
81.3888228321
20
215.4748735000
11
81.5373003864
21
215.8246655036
0
LINE
5
22A
100
AcDbEntity
8
0
100
AcDbLine
62
7
6
CONTINUOUS
10
82.5271513843
20
218.1566109229
11
82.6756289386
21
218.5064029266
0
LINE
5
22B
100
AcDbEntity
8
0
100
AcDbLine
62
7
6
CONTINUOUS
10
83.5664961719
20
220.6051539947
11
83.7149737262
21
220.9549455215
0
LINE
5
22C
100
AcDbEntity
8
0
100
AcDbLine
62
7
6
CONTINUOUS
10
85.1007674121
20
224.2196692993
11
85.2492449665
21
224.5694617797
0
LINE
5
22D
100
AcDbEntity
8
0
100
AcDbLine
62
7
6
CONTINUOUS
10
86.1401121997
20
226.6682128478
11
86.2885897541
21
227.0180043746
0
LINE
5
22E
100
AcDbEntity
8
0
100
AcDbLine
62
7
6
CONTINUOUS
10
86.4865610980
20
227.4843930770
11
87.3774283313
21
229.5831441451
0
LINE
5
22F
100
AcDbEntity
8
0
100
AcDbLine
62
7
6
CONTINUOUS
10
85.5956938648
20
225.3856420089
11
85.7936633014
21
225.8520316650
0
LINE
5
230
100
AcDbEntity
8
0
100
AcDbLine
62
7
6
CONTINUOUS
10
83.0220778369
20
219.3225836326
11
83.2200491809
21
219.7889728118
0
LINE
5
231
100
AcDbEntity
8
0
100
AcDbLine
62
7
6
CONTINUOUS
10
82.1559565448
20
217.2821311523
11
82.3291819477
21
217.6902217437
0
LINE
5
232
100
AcDbEntity
8
0
100
AcDbLine
62
7
6
CONTINUOUS
10
87.7979300403
20
230.7807092239
11
88.0208323383
21
231.0989083816
0
LINE
5
233
100
AcDbEntity
8
0
100
AcDbLine
62
7
6
CONTINUOUS
10
78.6829684162
20
218.6187214424
11
78.4848139667
21
218.3588189651
0
LINE
5
234
100
AcDbEntity
8
0
100
AcDbLine
62
7
6
CONTINUOUS
10
87.6487124347
20
231.2568635513
11
87.4505579853
21
230.9969625045
0
LINE
5
235
100
AcDbEntity
8
0
100
AcDbLine
62
7
6
CONTINUOUS
10
95.7042963886
20
238.6304425765
11
95.8926833057
21
238.8374814559
0
LINE
5
236
100
AcDbEntity
8
0
100
AcDbLine
62
7
6
CONTINUOUS
10
95.6799176120
20
239.2060021926
11
95.4337962055
21
238.9656304885
0
LINE
5
237
100
AcDbEntity
8
0
100
AcDbLine
62
7
6
CONTINUOUS
10
83.9790499591
20
230.6816567947
11
83.7312167072
21
230.5116433669
0
LINE
5
238
100
AcDbEntity
8
0
100
AcDbLine
62
7
6
CONTINUOUS
10
98.6547673130
20
241.1200780441
11
98.0196822071
21
240.7534112502
0
LINE
5
239
100
AcDbEntity
8
0
100
AcDbLine
62
7
6
CONTINUOUS
10
97.7310068988
20
240.5867433120
11
97.2691271686
21
240.3200768997
0
LINE
5
23A
100
AcDbEntity
8
0
100
AcDbLine
62
7
6
CONTINUOUS
10
96.0263274097
20
239.4060029556
11
95.6799176120
21
239.2060021926
0
LINE
5
23B
100
AcDbEntity
8
0
100
AcDbLine
62
7
6
CONTINUOUS
10
97.4393399143
20
240.0252599288
11
97.9012196445
21
240.2919263412
0
LINE
5
23C
100
AcDbEntity
8
0
100
AcDbLine
62
7
6
CONTINUOUS
10
98.1898949527
20
240.4585942794
11
98.8249800586
21
240.8252610732
0
LINE
5
23D
100
AcDbEntity
8
0
100
AcDbLine
62
7
6
CONTINUOUS
10
95.8926833057
20
238.8374814559
11
96.2390940570
21
239.0374803115
0
LINE
5
23E
100
AcDbEntity
8
0
100
AcDbLine
62
7
6
CONTINUOUS
10
95.1968710803
20
238.0426644851
11
95.6010163211
21
238.2759961654
0
LINE
5
23F
100
AcDbEntity
8
0
100
AcDbLine
62
7
6
CONTINUOUS
10
95.9262602710
20
237.5793256332
11
95.5798495197
21
237.3793248702
0
LINE
5
240
100
AcDbEntity
8
0
100
AcDbLine
62
7
6
CONTINUOUS
10
97.0901577854
20
237.5633954574
11
96.7437470340
21
237.3633946945
0
LINE
5
241
100
AcDbEntity
8
0
100
AcDbLine
62
7
6
CONTINUOUS
10
95.4158423328
20
236.5967282821
11
95.1271670246
21
236.4300622512
0
LINE
5
242
100
AcDbEntity
8
0
100
AcDbLine
62
7
6
CONTINUOUS
10
94.1852324390
20
235.3948735763
11
94.5316431903
21
235.5948743392
0
LINE
5
243
100
AcDbEntity
8
0
100
AcDbLine
62
7
6
CONTINUOUS
10
96.9565136814
20
236.9948739578
11
97.3029234790
21
237.1948728134
0
LINE
5
244
100
AcDbEntity
8
0
100
AcDbLine
62
7
6
CONTINUOUS
10
85.0928175830
20
233.0986089279
11
84.7458155536
21
232.9018888046
0
LINE
5
245
100
AcDbEntity
8
0
100
AcDbLine
62
7
6
CONTINUOUS
10
85.0931876087
20
232.6856336166
11
85.3162749195
21
232.7973489334
0
LINE
5
246
100
AcDbEntity
8
0
100
AcDbLine
62
7
6
CONTINUOUS
10
84.0538428211
20
230.2370919753
11
84.2769301319
21
230.3488053848
0
LINE
5
247
100
AcDbEntity
8
0
100
AcDbLine
62
7
6
CONTINUOUS
10
108.3554885768
20
243.3465756942
11
108.1404886627
21
243.2550859023
0
LINE
5
248
100
AcDbEntity
8
0
100
AcDbLine
62
7
6
CONTINUOUS
10
99.5120366001
20
238.5685777236
11
99.9009993457
21
238.6948728134
0
LINE
5
249
100
AcDbEntity
8
0
100
AcDbLine
62
7
6
CONTINUOUS
10
136.8043943015
20
184.9370332344
11
134.2155557167
21
184.9370332344
0
LINE
5
24A
100
AcDbEntity
8
0
100
AcDbLine
62
7
6
CONTINUOUS
10
87.8220882689
20
184.9370332344
11
85.2332496841
21
184.9370332344
0
LINE
5
24B
100
AcDbEntity
8
0
100
AcDbLine
62
7
6
CONTINUOUS
10
80.3947184467
20
217.8921279479
11
80.3448546314
21
218.1885041763
0
LINE
5
24C
100
AcDbEntity
8
0
100
AcDbLine
62
7
6
CONTINUOUS
10
87.6980212116
20
231.5799493362
11
87.6487124347
21
231.2568635513
0
LINE
5
24D
100
AcDbEntity
8
0
100
AcDbLine
62
7
6
CONTINUOUS
10
88.0208323383
20
231.0989083816
11
88.0948851489
21
231.4802922775
0
LINE
5
24E
100
AcDbEntity
8
0
100
AcDbLine
62
7
6
CONTINUOUS
10
95.4337962055
20
238.9656304885
11
95.2727797412
21
238.5778512527
0
LINE
5
24F
100
AcDbEntity
8
0
100
AcDbLine
62
7
6
CONTINUOUS
10
97.2785447025
20
237.7704324294
11
97.0901577854
21
237.5633954574
0
LINE
5
250
100
AcDbEntity
8
0
100
AcDbLine
62
7
6
CONTINUOUS
10
97.3029234790
20
237.1948728134
11
97.5490458393
21
237.4352445175
0
LINE
5
251
100
AcDbEntity
8
0
100
AcDbLine
62
7
6
CONTINUOUS
10
78.8816798114
20
218.2591628600
11
79.0303423786
21
218.4024676849
0
LINE
5
252
100
AcDbEntity
8
0
100
AcDbLine
62
7
6
CONTINUOUS
10
108.4271552944
20
242.8891286422
11
108.7138219261
21
243.0721082260
0
LINE
5
253
100
AcDbEntity
8
0
100
AcDbLine
62
7
6
CONTINUOUS
10
95.2488415622
20
235.4193143417
11
95.5375168704
21
235.5859803726
0
LINE
5
254
100
AcDbEntity
8
0
100
AcDbLine
62
7
6
CONTINUOUS
10
87.4509280109
20
230.5839891006
11
87.7979300403
21
230.7807092239
0
LINE
5
255
100
AcDbEntity
8
0
100
AcDbLine
62
7
6
CONTINUOUS
10
87.4505579853
20
230.9969625045
11
87.2274706745
21
230.8852490951
0
LINE
5
256
100
AcDbEntity
8
0
100
AcDbLine
62
7
6
CONTINUOUS
10
111.3654886567
20
241.4252996017
11
111.0788219915
21
241.3338098098
0
LINE
5
257
100
AcDbEntity
8
0
100
AcDbLine
62
7
6
CONTINUOUS
10
114.8054886245
20
241.4252996017
11
114.5188219928
21
241.3338098098
0
LINE
5
258
100
AcDbEntity
8
0
100
AcDbLine
62
7
6
CONTINUOUS
10
79.8984969043
20
218.1715635826
11
79.9978526020
21
217.9917840530
0
LINE
5
259
100
AcDbEntity
8
0
100
AcDbLine
62
7
6
CONTINUOUS
10
83.3105299854
20
229.5205678512
11
83.3603918933
21
229.2241906692
0
LINE
5
25A
100
AcDbEntity
8
0
100
AcDbLine
62
7
6
CONTINUOUS
10
92.1852324390
20
238.8589753677
11
92.1366942310
21
238.1430444290
0
LINE
5
25B
100
AcDbEntity
8
0
100
AcDbLine
62
7
6
CONTINUOUS
10
95.6010163211
20
238.2759961654
11
95.7042963886
21
238.6304425765
0
LINE
5
25C
100
AcDbEntity
8
0
100
AcDbLine
62
7
6
CONTINUOUS
10
97.3666432285
20
238.0178403427
11
97.2785447025
21
237.7704324294
0
LINE
5
25D
100
AcDbEntity
8
0
100
AcDbLine
62
7
6
CONTINUOUS
10
97.5490458393
20
237.4352445175
11
97.7100613498
21
237.8230237533
0
LINE
5
25E
100
AcDbEntity
8
0
100
AcDbLine
62
7
6
CONTINUOUS
10
108.4988220119
20
243.5295552780
11
108.3554885768
21
243.3465756942
0
LINE
5
25F
100
AcDbEntity
8
0
100
AcDbLine
62
7
6
CONTINUOUS
10
111.5804886603
20
241.6082772781
11
111.3654886567
21
241.4252996017
0
LINE
5
260
100
AcDbEntity
8
0
100
AcDbLine
62
7
6
CONTINUOUS
10
111.4371553146
20
240.8763627578
11
111.7238219761
21
241.0593423416
0
LINE
5
261
100
AcDbEntity
8
0
100
AcDbLine
62
7
6
CONTINUOUS
10
114.8771553420
20
240.8763627578
11
115.1638219737
21
241.0593423416
0
LINE
5
262
100
AcDbEntity
8
0
100
AcDbLine
62
7
6
CONTINUOUS
10
80.3448546314
20
218.1885041763
11
80.1213992023
21
218.4897641708
0
LINE
5
263
100
AcDbEntity
8
0
100
AcDbLine
62
7
6
CONTINUOUS
10
83.7820036792
20
229.1828336288
11
83.7073939228
21
229.4209107925
0
LINE
5
264
100
AcDbEntity
8
0
100
AcDbLine
62
7
6
CONTINUOUS
10
84.4488585376
20
232.2023038436
11
84.5483992481
21
231.8160390426
0
LINE
5
265
100
AcDbEntity
8
0
100
AcDbLine
62
7
6
CONTINUOUS
10
91.0188219928
20
177.2248735000
11
91.0188219928
21
179.9370332344
0
LINE
5
266
100
AcDbEntity
8
0
100
AcDbLine
62
7
6
CONTINUOUS
10
92.4771197223
20
237.5534104873
11
92.5256579303
21
238.2693414260
0
LINE
5
267
100
AcDbEntity
8
0
100
AcDbLine
62
7
6
CONTINUOUS
10
108.7138219261
20
243.0721082260
11
108.9288220787
21
243.4380654861
0
LINE
5
268
100
AcDbEntity
8
0
100
AcDbLine
62
7
6
CONTINUOUS
10
115.0204885387
20
241.6082772781
11
114.8054886245
21
241.4252996017
0
LINE
5
269
100
AcDbEntity
8
0
100
AcDbLine
62
7
6
CONTINUOUS
10
79.0052264118
20
218.7571429778
11
78.6829684162
21
218.6187214424
0
LINE
5
26A
100
AcDbEntity
8
DEFAULT_2
100
AcDbLine
62
8
6
HIDDEN
10
121.0188219928
20
178.2248735000
11
122.5188219928
21
176.7248735000
0
LINE
5
26B
100
AcDbEntity
8
0
100
AcDbLine
62
7
6
CONTINUOUS
10
84.9203322315
20
231.8645696212
11
84.8457243823
21
232.1026486923
0
LINE
5
26C
100
AcDbEntity
8
0
100
AcDbLine
62
7
6
CONTINUOUS
10
88.0948851489
20
231.4802922775
11
87.9953463458
21
231.8665589858
0
LINE
5
26D
100
AcDbEntity
8
0
100
AcDbLine
62
7
6
CONTINUOUS
10
97.7100613498
20
237.8230237533
11
97.7130530261
21
238.2178411056
0
LINE
5
26E
100
AcDbEntity
8
0
100
AcDbLine
62
7
6
CONTINUOUS
10
111.7238219761
20
241.0593423416
11
112.0104886674
21
241.4252996017
0
LINE
5
26F
100
AcDbEntity
8
0
100
AcDbLine
62
7
6
CONTINUOUS
10
115.1638219737
20
241.0593423416
11
115.4504888439
21
241.4252996017
0
LINE
5
270
100
AcDbEntity
8
0
100
AcDbLine
62
7
6
CONTINUOUS
10
79.6999724292
20
218.3246354629
11
79.8984969043
21
218.1715635826
0
LINE
5
271
100
AcDbEntity
8
0
100
AcDbLine
62
7
6
CONTINUOUS
10
80.1213992023
20
218.4897641708
11
79.9228747272
21
218.6428360511
0
LINE
5
272
100
AcDbEntity
8
0
100
AcDbLine
62
7
6
CONTINUOUS
10
83.3603918933
20
229.2241906692
11
83.5591013812
21
228.8646325637
0
LINE
5
273
100
AcDbEntity
8
0
100
AcDbLine
62
7
6
CONTINUOUS
10
84.5483992481
20
231.8160390426
11
84.6974318408
21
231.5463685562
0
LINE
5
274
100
AcDbEntity
8
0
100
AcDbLine
62
7
6
CONTINUOUS
10
84.9467432880
20
230.0644864608
11
86.1144411945
21
227.6423482467
0
LINE
5
275
100
AcDbEntity
8
0
100
AcDbLine
62
7
6
CONTINUOUS
10
86.3124125385
20
228.1087369491
11
85.2937472248
21
230.2612065841
0
LINE
5
276
100
AcDbEntity
8
0
100
AcDbLine
62
7
6
CONTINUOUS
10
87.6234114551
20
231.8180264999
11
87.6980212116
21
231.5799493362
0
LINE
5
277
100
AcDbEntity
8
0
100
AcDbLine
62
7
6
CONTINUOUS
10
97.3544533634
20
238.3056211044
11
97.3666432285
21
238.0178403427
0
LINE
5
278
100
AcDbEntity
8
DEFAULT_2
100
AcDbLine
62
8
6
HIDDEN
10
101.0188219928
20
194.4043654243
11
101.0188219928
21
178.2248735000
0
LINE
5
279
100
AcDbEntity
8
0
100
AcDbLine
62
7
6
CONTINUOUS
10
108.5704887294
20
243.8040208389
11
108.4988220119
21
243.5295552780
0
LINE
5
27A
100
AcDbEntity
8
0
100
AcDbLine
62
7
6
CONTINUOUS
10
111.7238219761
20
241.8827466537
11
111.5804886603
21
241.6082772781
0
LINE
5
27B
100
AcDbEntity
8
0
100
AcDbLine
62
7
6
CONTINUOUS
10
79.9943392658
20
221.9150361587
11
82.7489436054
21
219.7137336303
0
LINE
5
27C
100
AcDbEntity
8
0
100
AcDbLine
62
7
6
CONTINUOUS
10
83.2200491809
20
219.7889728118
11
80.8128168964
21
221.7740220596
0
LINE
5
27D
100
AcDbEntity
8
0
100
AcDbLine
62
7
6
CONTINUOUS
10
83.9557822132
20
228.9714631606
11
83.7820036792
21
229.1828336288
0
LINE
5
27E
100
AcDbEntity
8
0
100
AcDbLine
62
7
6
CONTINUOUS
10
87.9953463458
20
231.8665589858
11
87.8463137531
21
232.1362275649
0
LINE
5
27F
100
AcDbEntity
8
0
100
AcDbLine
62
7
6
CONTINUOUS
10
95.1271670246
20
236.4300622512
11
95.2488415622
21
235.4193143417
0
LINE
5
280
100
AcDbEntity
8
0
100
AcDbLine
62
7
6
CONTINUOUS
10
95.5375168704
20
235.5859803726
11
95.4158423328
21
236.5967282821
0
LINE
5
281
100
AcDbEntity
8
0
100
AcDbLine
62
7
6
CONTINUOUS
10
108.9288220787
20
243.4380654861
11
109.0004885578
21
243.7125329543
0
LINE
5
282
100
AcDbEntity
8
0
100
AcDbLine
62
7
6
CONTINUOUS
10
112.0104886674
20
241.4252996017
11
112.1538219833
21
241.7912568618
0
LINE
5
283
100
AcDbEntity
8
0
100
AcDbLine
62
7
6
CONTINUOUS
10
115.1638219737
20
241.8827466537
11
115.0204885387
21
241.6082772781
0
LINE
5
284
100
AcDbEntity
8
0
100
AcDbLine
62
7
6
CONTINUOUS
10
77.8909037494
20
216.9596519042
11
81.3888228321
21
215.4748735000
0
LINE
5
285
100
AcDbEntity
8
0
100
AcDbLine
62
7
6
CONTINUOUS
10
81.5373003864
20
215.8246655036
11
79.9743998432
21
216.4880771209
0
LINE
5
286
100
AcDbEntity
8
0
100
AcDbLine
62
7
6
CONTINUOUS
10
79.5278571033
20
216.6776232292
11
78.4114992999
21
217.1514882614
0
LINE
5
287
100
AcDbEntity
8
0
100
AcDbLine
62
7
6
CONTINUOUS
10
79.4767001056
20
218.4194082786
11
79.6999724292
21
218.3246354629
0
LINE
5
288
100
AcDbEntity
8
0
100
AcDbLine
62
7
6
CONTINUOUS
10
79.9228747272
20
218.6428360511
11
79.6251776599
21
218.7692002822
0
LINE
5
289
100
AcDbEntity
8
0
100
AcDbLine
62
7
6
CONTINUOUS
10
85.2937472248
20
230.2612065841
11
85.1199667835
21
230.4725770522
0
LINE
5
28A
100
AcDbEntity
8
0
100
AcDbLine
62
7
6
CONTINUOUS
10
85.2678912067
20
231.4418286849
11
84.9203322315
21
231.8645696212
0
LINE
5
28B
100
AcDbEntity
8
0
100
AcDbLine
62
7
6
CONTINUOUS
10
97.7130530261
20
238.2178411056
11
97.6157572650
21
238.6530293990
0
LINE
5
28C
100
AcDbEntity
8
0
100
AcDbLine
62
7
6
CONTINUOUS
10
106.3488219165
20
245.0848741104
11
106.3488219165
21
240.7848729659
0
LINE
5
28D
100
AcDbEntity
8
0
100
AcDbLine
62
7
6
CONTINUOUS
10
106.7788222217
20
240.7848729659
11
106.7788222217
21
242.7061509658
0
LINE
5
28E
100
AcDbEntity
8
0
100
AcDbLine
62
7
6
CONTINUOUS
10
106.7788222217
20
243.2550859023
11
106.7788222217
21
244.6274270584
0
LINE
5
28F
100
AcDbEntity
8
0
100
AcDbLine
62
7
6
CONTINUOUS
10
112.1538219833
20
241.7912568618
11
112.2254887008
21
242.2487039138
0
LINE
5
290
100
AcDbEntity
8
0
100
AcDbLine
62
7
6
CONTINUOUS
10
111.7954886341
20
242.2487039138
11
111.7238219761
21
241.8827466537
0
LINE
5
291
100
AcDbEntity
8
0
100
AcDbLine
62
7
6
CONTINUOUS
10
115.4504888439
20
241.4252996017
11
115.5938218021
21
241.7912568618
0
LINE
5
292
100
AcDbEntity
8
0
100
AcDbLine
62
7
6
CONTINUOUS
10
79.0292342090
20
219.6413893272
11
82.5271513843
21
218.1566109229
0
LINE
5
293
100
AcDbEntity
8
0
100
AcDbLine
62
7
6
CONTINUOUS
10
82.6756289386
20
218.5064029266
11
79.9219496631
21
219.6752709915
0
LINE
5
294
100
AcDbEntity
8
0
100
AcDbLine
62
7
6
CONTINUOUS
10
80.8128168964
20
221.7740220596
11
83.5664961719
21
220.6051539947
0
LINE
5
295
100
AcDbEntity
8
0
100
AcDbLine
62
7
6
CONTINUOUS
10
83.7149737262
20
220.9549455215
11
80.2170565509
21
222.4397239257
0
LINE
5
296
100
AcDbEntity
8
0
100
AcDbLine
62
7
6
CONTINUOUS
10
82.5679552936
20
227.9780950118
11
85.3225596332
21
225.7767924835
0
LINE
5
297
100
AcDbEntity
8
0
100
AcDbLine
62
7
6
CONTINUOUS
10
85.7936633014
20
225.8520316650
11
83.3864329242
21
227.8370809127
0
LINE
5
298
100
AcDbEntity
8
0
100
AcDbLine
62
7
6
CONTINUOUS
10
84.6985400104
20
230.3074483444
11
84.9467432880
21
230.0644864608
0
LINE
5
299
100
AcDbEntity
8
0
100
AcDbLine
62
7
6
CONTINUOUS
10
84.6974318408
20
231.5463685562
11
84.9456332111
21
231.3034085800
0
LINE
5
29A
100
AcDbEntity
8
0
100
AcDbLine
62
7
6
CONTINUOUS
10
87.2758543872
20
232.2407674362
11
87.6234114551
21
231.8180264999
0
LINE
5
29B
100
AcDbEntity
8
0
100
AcDbLine
62
7
6
CONTINUOUS
10
92.1366942310
20
238.1430444290
11
92.4771197223
21
237.5534104873
0
LINE
5
29C
100
AcDbEntity
8
0
100
AcDbLine
62
7
6
CONTINUOUS
10
92.5256579303
20
238.2693414260
11
94.1852324390
21
235.3948735763
0
LINE
5
29D
100
AcDbEntity
8
0
100
AcDbLine
62
7
6
CONTINUOUS
10
97.2845290088
20
238.5600671340
11
97.3544533634
21
238.3056211044
0
LINE
5
29E
100
AcDbEntity
8
0
100
AcDbLine
62
7
6
CONTINUOUS
10
108.5704887294
20
244.0784921218
11
108.5704887294
21
243.8040208389
0
LINE
5
29F
100
AcDbEntity
8
0
100
AcDbLine
62
7
6
CONTINUOUS
10
109.0004885578
20
243.7125329543
11
109.0004885578
21
244.0784921218
0
LINE
5
2A0
100
AcDbEntity
8
0
100
AcDbLine
62
7
6
CONTINUOUS
10
109.6454886579
20
245.0848741104
11
109.6454886579
21
242.2487039138
0
LINE
5
2A1
100
AcDbEntity
8
0
100
AcDbLine
62
7
6
CONTINUOUS
10
110.0754886651
20
242.2487039138
11
110.0754886651
21
245.0848741104
0
LINE
5
2A2
100
AcDbEntity
8
DEFAULT_1
100
AcDbLine
62
2
6
CENTER
10
111.0188219928
20
211.7248735000
11
111.0188219928
21
174.3999006810
0
LINE
5
2A3
100
AcDbEntity
8
DEFAULT_1
100
AcDbLine
62
2
6
CENTER
10
111.0188219928
20
211.7248735000
11
111.0188219928
21
234.7248735000
0
LINE
5
2A4
100
AcDbEntity
8
0
100
AcDbLine
62
7
6
CONTINUOUS
10
115.5938218021
20
241.7912568618
11
115.6654885196
21
242.2487039138
0
LINE
5
2A5
100
AcDbEntity
8
0
100
AcDbLine
62
7
6
CONTINUOUS
10
115.2354886913
20
242.2487039138
11
115.1638219737
21
241.8827466537
0
LINE
5
2A6
100
AcDbEntity
8
DEFAULT_1
100
AcDbLine
62
2
6
CENTER
10
111.0188219928
20
211.7248735000
11
88.0188219928
21
211.7248735000
0
LINE
5
2A7
100
AcDbEntity
8
DEFAULT_1
100
AcDbLine
62
2
6
CENTER
10
111.0188219928
20
211.7248735000
11
134.0188219928
21
211.7248735000
0
LINE
5
2A8
100
AcDbEntity
8
0
100
AcDbLine
62
7
6
CONTINUOUS
10
81.6028483295
20
225.7044477035
11
85.1007674121
21
224.2196692993
0
LINE
5
2A9
100
AcDbEntity
8
0
100
AcDbLine
62
7
6
CONTINUOUS
10
83.5591013812
20
228.8646325637
11
83.8320506000
21
228.6799687911
0
LINE
5
2AA
100
AcDbEntity
8
0
100
AcDbLine
62
7
6
CONTINUOUS
10
85.1199667835
20
230.4725770522
11
84.8470194721
21
230.6572389175
0
LINE
5
2AB
100
AcDbEntity
8
0
100
AcDbLine
62
7
6
CONTINUOUS
10
84.9456332111
20
231.3034085800
11
85.1441595935
21
231.1503362228
0
LINE
5
2AC
100
AcDbEntity
8
0
100
AcDbLine
62
7
6
CONTINUOUS
10
87.8463137531
20
232.1362275649
11
87.5981104755
21
232.3791894485
0
LINE
5
2AD
100
AcDbEntity
8
0
100
AcDbLine
62
7
6
CONTINUOUS
10
94.5316431903
20
235.5948743392
11
92.5316431903
21
239.0589742233
0
LINE
5
2AE
100
AcDbEntity
8
0
100
AcDbLine
62
7
6
CONTINUOUS
10
94.0904887104
20
239.9589757491
11
95.1968710803
21
238.0426644851
0
LINE
5
2AF
100
AcDbEntity
8
0
100
AcDbLine
62
7
6
CONTINUOUS
10
95.2727797412
20
238.5778512527
11
94.5919287586
21
239.7571210433
0
LINE
5
2B0
100
AcDbEntity
8
0
100
AcDbLine
62
7
6
CONTINUOUS
10
111.7954886341
20
245.0848741104
11
111.7954886341
21
242.2487039138
0
LINE
5
2B1
100
AcDbEntity
8
0
100
AcDbLine
62
7
6
CONTINUOUS
10
112.2254887008
20
242.2487039138
11
112.2254887008
21
245.0848741104
0
LINE
5
2B2
100
AcDbEntity
8
0
100
AcDbLine
62
7
6
CONTINUOUS
10
112.7988219642
20
245.0848741104
11
112.7988219642
21
240.7848729659
0
LINE
5
2B3
100
AcDbEntity
8
0
100
AcDbLine
62
7
6
CONTINUOUS
10
113.2288220310
20
241.3338098098
11
113.2288220310
21
244.5359391738
0
LINE
5
2B4
100
AcDbEntity
8
0
100
AcDbLine
62
7
6
CONTINUOUS
10
82.3291819477
20
217.6902217437
11
80.3947184467
21
217.8921279479
0
LINE
5
2B5
100
AcDbEntity
8
0
100
AcDbLine
62
7
6
CONTINUOUS
10
80.3950865650
20
217.4791535903
11
82.1559565448
21
217.2821311523
0
LINE
5
2B6
100
AcDbEntity
8
0
100
AcDbLine
62
7
6
CONTINUOUS
10
79.9219496631
20
219.6752709915
11
83.0220778369
21
219.3225836326
0
LINE
5
2B7
100
AcDbEntity
8
0
100
AcDbLine
62
7
6
CONTINUOUS
10
82.7489436054
20
219.7137336303
11
79.2519495868
21
220.1660766174
0
LINE
5
2B8
100
AcDbEntity
8
0
100
AcDbLine
62
7
6
CONTINUOUS
10
79.2286837482
20
218.4558829833
11
79.4767001056
21
218.4194082786
0
LINE
5
2B9
100
AcDbEntity
8
0
100
AcDbLine
62
7
6
CONTINUOUS
10
79.6251776599
20
218.7692002822
11
79.3771613025
21
218.8056745101
0
LINE
5
2BA
100
AcDbEntity
8
0
100
AcDbLine
62
7
6
CONTINUOUS
10
85.2492449665
20
224.5694617797
11
82.4955656909
21
225.7383298446
0
LINE
5
2BB
100
AcDbEntity
8
0
100
AcDbLine
62
7
6
CONTINUOUS
10
83.3864329242
20
227.8370809127
11
86.1401121997
21
226.6682128478
0
LINE
5
2BC
100
AcDbEntity
8
0
100
AcDbLine
62
7
6
CONTINUOUS
10
86.2885897541
20
227.0180043746
11
82.7906725788
21
228.5027818252
0
LINE
5
2BD
100
AcDbEntity
8
0
100
AcDbLine
62
7
6
CONTINUOUS
10
86.1144411945
20
227.6423482467
11
86.4865610980
21
227.4843930770
0
LINE
5
2BE
100
AcDbEntity
8
0
100
AcDbLine
62
7
6
CONTINUOUS
10
85.6896880054
20
231.1939839889
11
85.2678912067
21
231.4418286849
0
LINE
5
2BF
100
AcDbEntity
8
0
100
AcDbLine
62
7
6
CONTINUOUS
10
85.1441595935
20
231.1503362228
11
85.4915316486
21
230.9340829421
0
LINE
5
2C0
100
AcDbEntity
8
0
100
AcDbLine
62
7
6
CONTINUOUS
10
87.5981104755
20
232.3791894485
11
87.3995860004
21
232.5322598983
0
LINE
5
2C1
100
AcDbEntity
8
0
100
AcDbLine
62
7
6
CONTINUOUS
10
97.1994231128
20
238.7074746658
11
97.2845290088
21
238.5600671340
0
LINE
5
2C2
100
AcDbEntity
8
0
100
AcDbLine
62
7
6
CONTINUOUS
10
96.2662451648
20
240.7237863113
11
96.0534785175
21
241.0923089553
0
LINE
5
2C3
100
AcDbEntity
8
0
100
AcDbLine
62
7
6
CONTINUOUS
10
97.6157572650
20
238.6530293990
11
97.4455445194
21
238.9478463699
0
LINE
5
2C4
100
AcDbEntity
8
0
100
AcDbLine
62
7
6
CONTINUOUS
10
97.2691271686
20
240.3200768997
11
97.4393399143
21
240.0252599288
0
LINE
5
2C5
100
AcDbEntity
8
0
100
AcDbLine
62
7
6
CONTINUOUS
10
97.3905814075
20
241.1763791610
11
97.7310068988
21
240.5867433120
0
LINE
5
2C6
100
AcDbEntity
8
0
100
AcDbLine
62
7
6
CONTINUOUS
10
97.9012196445
20
240.2919263412
11
98.7522843265
21
238.8178414871
0
LINE
5
2C7
100
AcDbEntity
8
0
100
AcDbLine
62
7
6
CONTINUOUS
10
98.9558527851
20
239.1319169570
11
98.1898949527
21
240.4585942794
0
LINE
5
2C8
100
AcDbEntity
8
0
100
AcDbLine
62
7
6
CONTINUOUS
10
98.0196822071
20
240.7534112502
11
97.6792567157
21
241.3430451919
0
LINE
5
2C9
100
AcDbEntity
8
0
100
AcDbLine
62
7
6
CONTINUOUS
10
99.9009993457
20
238.6948728134
11
99.7307866001
21
238.9896897842
0
LINE
5
2CA
100
AcDbEntity
8
0
100
AcDbLine
62
7
6
CONTINUOUS
10
98.8249800586
20
240.8252610732
11
98.6547673130
21
241.1200780441
0
LINE
5
2CB
100
AcDbEntity
8
0
100
AcDbLine
62
7
6
CONTINUOUS
10
109.6454886579
20
242.2487039138
11
109.7171553754
21
241.7912568618
0
LINE
5
2CC
100
AcDbEntity
8
0
100
AcDbLine
62
7
6
CONTINUOUS
10
115.2354886913
20
243.6210431625
11
115.2354886913
21
242.2487039138
0
LINE
5
2CD
100
AcDbEntity
8
0
100
AcDbLine
62
7
6
CONTINUOUS
10
115.6654885196
20
242.2487039138
11
115.6654885196
21
243.6210431625
0
LINE
5
2CE
100
AcDbEntity
8
0
100
AcDbLine
62
7
6
CONTINUOUS
10
84.5496924304
20
230.3706292678
11
84.6985400104
21
230.3074483444
0
LINE
5
2CF
100
AcDbEntity
8
0
100
AcDbLine
62
7
6
CONTINUOUS
10
84.8470194721
20
230.6572389175
11
84.6981718921
21
230.7204217483
0
LINE
5
2D0
100
AcDbEntity
8
0
100
AcDbLine
62
7
6
CONTINUOUS
10
87.3774283313
20
229.5831441451
11
87.0053084278
21
229.7410993148
0
LINE
5
2D1
100
AcDbEntity
8
0
100
AcDbLine
62
7
6
CONTINUOUS
10
85.4915316486
20
230.9340829421
11
86.1613467121
21
230.6497640182
0
LINE
5
2D2
100
AcDbEntity
8
0
100
AcDbLine
62
7
6
CONTINUOUS
10
86.2106535816
20
230.9728478958
11
85.6896880054
21
231.1939839889
0
LINE
5
2D3
100
AcDbEntity
8
0
100
AcDbLine
62
7
6
CONTINUOUS
10
86.8540575885
20
232.4886121322
11
87.2758543872
21
232.2407674362
0
LINE
5
2D4
100
AcDbEntity
8
0
100
AcDbLine
62
7
6
CONTINUOUS
10
87.3995860004
20
232.5322598983
11
87.0522139453
21
232.7485150863
0
LINE
5
2D5
100
AcDbEntity
8
0
100
AcDbLine
62
7
6
CONTINUOUS
10
109.0721552753
20
240.7848729659
11
108.4271552944
21
242.8891286422
0
LINE
5
2D6
100
AcDbEntity
8
0
100
AcDbLine
62
7
6
CONTINUOUS
10
107.9971552276
20
242.7061509658
11
108.5704887294
21
240.7848729659
0
LINE
5
2D7
100
AcDbEntity
8
0
100
AcDbLine
62
7
6
CONTINUOUS
10
108.4988220119
20
244.3529595901
11
108.5704887294
21
244.0784921218
0
LINE
5
2D8
100
AcDbEntity
8
0
100
AcDbLine
62
7
6
CONTINUOUS
10
109.0004885578
20
244.0784921218
11
108.9288220787
21
244.3529595901
0
LINE
5
2D9
100
AcDbEntity
8
0
100
AcDbLine
62
7
6
CONTINUOUS
10
110.1471553230
20
241.8827466537
11
110.0754886651
21
242.2487039138
0
LINE
5
2DA
100
AcDbEntity
8
DEFAULT_2
100
AcDbLine
62
8
6
HIDDEN
10
121.0188219928
20
194.4043654243
11
121.0188219928
21
178.2248735000
0
LINE
5
2DB
100
AcDbEntity
8
0
100
AcDbLine
62
7
6
CONTINUOUS
10
79.3771613025
20
218.8056745101
11
79.0052264118
21
218.7571429778
0
LINE
5
2DC
100
AcDbEntity
8
0
100
AcDbLine
62
7
6
CONTINUOUS
10
82.4955656909
20
225.7383298446
11
85.5956938648
21
225.3856420089
0
LINE
5
2DD
100
AcDbEntity
8
0
100
AcDbLine
62
7
6
CONTINUOUS
10
85.3225596332
20
225.7767924835
11
81.8255656146
21
226.2291354705
0
LINE
5
2DE
100
AcDbEntity
8
0
100
AcDbLine
62
7
6
CONTINUOUS
10
86.6819422626
20
230.8415994216
11
86.2106535816
21
230.9728478958
0
LINE
5
2DF
100
AcDbEntity
8
0
100
AcDbLine
62
7
6
CONTINUOUS
10
86.3330920124
20
232.7097501327
11
86.8540575885
21
232.4886121322
0
LINE
5
2E0
100
AcDbEntity
8
0
100
AcDbLine
62
7
6
CONTINUOUS
10
87.0522139453
20
232.7485150863
11
86.3823988819
21
233.0328340103
0
LINE
5
2E1
100
AcDbEntity
8
0
100
AcDbLine
62
7
6
CONTINUOUS
10
95.5798495197
20
237.3793248702
11
95.8655321979
21
237.1511735488
0
LINE
5
2E2
100
AcDbEntity
8
0
100
AcDbLine
62
7
6
CONTINUOUS
10
96.2119429492
20
237.3511743118
11
95.9262602710
21
237.5793256332
0
LINE
5
2E3
100
AcDbEntity
8
0
100
AcDbLine
62
7
6
CONTINUOUS
10
97.4455445194
20
238.9478463699
11
97.1173088932
21
239.2497014572
0
LINE
5
2E4
100
AcDbEntity
8
0
100
AcDbLine
62
7
6
CONTINUOUS
10
97.0140278720
20
238.8952550460
11
97.1994231128
21
238.7074746658
0
LINE
5
2E5
100
AcDbEntity
8
0
100
AcDbLine
62
7
6
CONTINUOUS
10
99.1412470722
20
238.9441365768
11
98.9558527851
21
239.1319169570
0
LINE
5
2E6
100
AcDbEntity
8
0
100
AcDbLine
62
7
6
CONTINUOUS
10
109.7171553754
20
241.7912568618
11
109.8604886913
21
241.4252996017
0
LINE
5
2E7
100
AcDbEntity
8
0
100
AcDbLine
62
7
6
CONTINUOUS
10
115.1638219737
20
243.9870004226
11
115.2354886913
21
243.6210431625
0
LINE
5
2E8
100
AcDbEntity
8
0
100
AcDbLine
62
7
6
CONTINUOUS
10
115.6654885196
20
243.6210431625
11
115.5938218021
21
244.0784921218
0
LINE
5
2E9
100
AcDbEntity
8
0
100
AcDbLine
62
7
6
CONTINUOUS
10
79.0303423786
20
218.4024676849
11
79.2286837482
21
218.4558829833
0
LINE
5
2EA
100
AcDbEntity
8
0
100
AcDbLine
62
7
6
CONTINUOUS
10
86.5582106494
20
230.5501069595
11
86.8062289142
21
230.5136327316
0
LINE
5
2EB
100
AcDbEntity
8
0
100
AcDbLine
62
7
6
CONTINUOUS
10
84.6981718921
20
230.7204217483
11
84.3757288837
21
230.7884873916
0
LINE
5
2EC
100
AcDbEntity
8
0
100
AcDbLine
62
7
6
CONTINUOUS
10
86.1613467121
20
230.6497640182
11
86.5582106494
21
230.5501069595
0
LINE
5
2ED
100
AcDbEntity
8
0
100
AcDbLine
62
7
6
CONTINUOUS
10
86.3823988819
20
233.0328340103
11
85.9855330371
21
233.1324891616
0
LINE
5
2EE
100
AcDbEntity
8
0
100
AcDbLine
62
7
6
CONTINUOUS
10
85.8618014240
20
232.8409966995
11
86.3330920124
21
232.7097501327
0
LINE
5
2EF
100
AcDbEntity
8
0
100
AcDbLine
62
7
6
CONTINUOUS
10
95.8655321979
20
237.1511735488
11
96.2089503192
21
236.9563569595
0
LINE
5
2F0
100
AcDbEntity
8
0
100
AcDbLine
62
7
6
CONTINUOUS
10
96.7708981418
20
239.0497006942
11
97.0140278720
21
238.8952550460
0
LINE
5
2F1
100
AcDbEntity
8
0
100
AcDbLine
62
7
6
CONTINUOUS
10
98.7522843265
20
238.8178414871
11
99.0379670047
21
238.5896901657
0
LINE
5
2F2
100
AcDbEntity
8
0
100
AcDbLine
62
7
6
CONTINUOUS
10
108.9288220787
20
244.3529595901
11
108.7138219261
21
244.7189149429
0
LINE
5
2F3
100
AcDbEntity
8
0
100
AcDbLine
62
7
6
CONTINUOUS
10
110.2904886388
20
241.6082772781
11
110.1471553230
21
241.8827466537
0
LINE
5
2F4
100
AcDbEntity
8
DEFAULT_2
100
AcDbLine
62
8
6
HIDDEN
10
101.0188219928
20
178.2248735000
11
99.5188219928
21
176.7248735000
0
LINE
5
2F5
100
AcDbEntity
8
0
100
AcDbLine
62
7
6
CONTINUOUS
10
86.8062289142
20
230.5136327316
11
87.1534159564
21
230.5038651992
0
LINE
5
2F6
100
AcDbEntity
8
0
100
AcDbLine
62
7
6
CONTINUOUS
10
85.9855330371
20
233.1324891616
11
85.7375166797
21
233.1689652969
0
LINE
5
2F7
100
AcDbEntity
8
0
100
AcDbLine
62
7
6
CONTINUOUS
10
97.1173088932
20
239.2497014572
11
96.7738907718
21
239.4445180465
0
LINE
5
2F8
100
AcDbEntity
8
0
100
AcDbLine
62
7
6
CONTINUOUS
10
109.8604886913
20
241.4252996017
11
110.1471553230
21
241.0593423416
0
LINE
5
2F9
100
AcDbEntity
8
0
100
AcDbLine
62
7
6
CONTINUOUS
10
108.3554885768
20
244.5359391738
11
108.4988220119
21
244.3529595901
0
LINE
5
2FA
100
AcDbEntity
8
0
100
AcDbLine
62
7
6
CONTINUOUS
10
115.5938218021
20
244.0784921218
11
115.4504888439
21
244.4444474746
0
LINE
5
2FB
100
AcDbEntity
8
0
100
AcDbLine
62
7
6
CONTINUOUS
10
131.0188219928
20
177.2248735000
11
131.0188219928
21
179.9370332344
0
LINE
5
2FC
100
AcDbEntity
8
0
100
AcDbLine
62
7
6
CONTINUOUS
10
84.2769301319
20
230.3488053848
11
84.5496924304
21
230.3706292678
0
LINE
5
2FD
100
AcDbEntity
8
0
100
AcDbLine
62
7
6
CONTINUOUS
10
87.2274706745
20
230.8852490951
11
86.6819422626
21
230.8415994216
0
LINE
5
2FE
100
AcDbEntity
8
0
100
AcDbLine
62
7
6
CONTINUOUS
10
85.7375166797
20
233.1689652969
11
85.3903277301
21
233.1787309219
0
LINE
5
2FF
100
AcDbEntity
8
0
100
AcDbLine
62
7
6
CONTINUOUS
10
96.4702542209
20
237.3037652542
11
96.2119429492
21
237.3511743118
0
LINE
5
300
100
AcDbEntity
8
0
100
AcDbLine
62
7
6
CONTINUOUS
10
110.5054886722
20
241.4252996017
11
110.2904886388
21
241.6082772781
0
LINE
5
301
100
AcDbEntity
8
0
100
AcDbLine
62
7
6
CONTINUOUS
10
108.7138219261
20
244.7189149429
11
108.4271552944
21
244.9933824111
0
LINE
5
302
100
AcDbEntity
8
0
100
AcDbLine
62
7
6
CONTINUOUS
10
115.0204885387
20
244.2614678909
11
115.1638219737
21
243.9870004226
0
LINE
5
303
100
AcDbEntity
8
0
100
AcDbLine
62
7
6
CONTINUOUS
10
87.1534159564
20
230.5038651992
11
87.4509280109
21
230.5839891006
0
LINE
5
304
100
AcDbEntity
8
0
100
AcDbLine
62
7
6
CONTINUOUS
10
84.3757288837
20
230.7884873916
11
83.9790499591
21
230.6816567947
0
LINE
5
305
100
AcDbEntity
8
0
100
AcDbLine
62
7
6
CONTINUOUS
10
85.3162749195
20
232.7973489334
11
85.8618014240
21
232.8409966995
0
LINE
5
306
100
AcDbEntity
8
0
100
AcDbLine
62
7
6
CONTINUOUS
10
96.2089503192
20
236.9563569595
11
96.6252854251
21
236.9019116927
0
LINE
5
307
100
AcDbEntity
8
0
100
AcDbLine
62
7
6
CONTINUOUS
10
96.7738907718
20
239.4445180465
11
96.3575566196
21
239.4989652206
0
LINE
5
308
100
AcDbEntity
8
0
100
AcDbLine
62
7
6
CONTINUOUS
10
99.0379670047
20
238.5896901657
11
99.2962782764
21
238.5422830154
0
LINE
5
309
100
AcDbEntity
8
0
100
AcDbLine
62
7
6
CONTINUOUS
10
96.5125868701
20
239.0971097518
11
96.7708981418
21
239.0497006942
0
LINE
5
30A
100
AcDbEntity
8
0
100
AcDbLine
62
7
6
CONTINUOUS
10
99.3995583438
20
238.8967275192
11
99.1412470722
21
238.9441365768
0
LINE
5
30B
100
AcDbEntity
8
0
100
AcDbLine
62
7
6
CONTINUOUS
10
110.1471553230
20
241.0593423416
11
110.4338220143
21
240.8763627578
0
LINE
5
30C
100
AcDbEntity
8
0
100
AcDbLine
62
7
6
CONTINUOUS
10
115.4504888439
20
244.4444474746
11
115.1638219737
21
244.8104066421
0
LINE
5
30D
100
AcDbEntity
8
0
100
AcDbLine
62
7
6
CONTINUOUS
10
96.6252854251
20
236.9019116927
11
96.9565136814
21
236.9948739578
0
LINE
5
30E
100
AcDbEntity
8
0
100
AcDbLine
62
7
6
CONTINUOUS
10
99.7307866001
20
238.9896897842
11
99.3995583438
21
238.8967275192
0
LINE
5
30F
100
AcDbEntity
8
0
100
AcDbLine
62
7
6
CONTINUOUS
10
85.3903277301
20
233.1787309219
11
85.0928175830
21
233.0986089279
0
LINE
5
310
100
AcDbEntity
8
0
100
AcDbLine
62
7
6
CONTINUOUS
10
114.5188219928
20
240.7848729659
11
114.8771553420
21
240.8763627578
0
LINE
5
311
100
AcDbEntity
8
0
100
AcDbLine
62
7
6
CONTINUOUS
10
111.0788219915
20
240.7848729659
11
111.4371553146
21
240.8763627578
0
LINE
5
312
100
AcDbEntity
8
0
100
AcDbLine
62
7
6
CONTINUOUS
10
96.7437470340
20
237.3633946945
11
96.4702542209
21
237.3037652542
0
LINE
5
313
100
AcDbEntity
8
0
100
AcDbLine
62
7
6
CONTINUOUS
10
99.2962782764
20
238.5422830154
11
99.5120366001
21
238.5685777236
0
LINE
5
314
100
AcDbEntity
8
0
100
AcDbLine
62
7
6
CONTINUOUS
10
106.3488219165
20
240.7848729659
11
106.7788222217
21
240.7848729659
0
LINE
5
315
100
AcDbEntity
8
0
100
AcDbLine
62
7
6
CONTINUOUS
10
108.5704887294
20
240.7848729659
11
109.0721552753
21
240.7848729659
0
LINE
5
316
100
AcDbEntity
8
0
100
AcDbLine
62
7
6
CONTINUOUS
10
110.7921553188
20
240.7848729659
11
111.0788219915
21
240.7848729659
0
LINE
5
317
100
AcDbEntity
8
0
100
AcDbLine
62
7
6
CONTINUOUS
10
112.7988219642
20
240.7848729659
11
114.5188219928
21
240.7848729659
0
LINE
5
318
100
AcDbEntity
8
0
100
AcDbLine
62
7
6
CONTINUOUS
10
110.4338220143
20
240.8763627578
11
110.7921553188
21
240.7848729659
0
LINE
5
319
100
AcDbEntity
8
0
100
AcDbLine
62
7
6
CONTINUOUS
10
110.7921553188
20
241.3338098098
11
110.5054886722
21
241.4252996017
0
LINE
5
31A
100
AcDbEntity
8
0
100
AcDbLine
62
7
6
CONTINUOUS
10
108.1404886627
20
244.6274270584
11
108.3554885768
21
244.5359391738
0
LINE
5
31B
100
AcDbEntity
8
0
100
AcDbLine
62
7
6
CONTINUOUS
10
114.8054886245
20
244.4444474746
11
115.0204885387
21
244.2614678909
0
LINE
5
31C
100
AcDbEntity
8
0
100
AcDbLine
62
7
6
CONTINUOUS
10
96.3575566196
20
239.4989652206
11
96.0263274097
21
239.4060029556
0
LINE
5
31D
100
AcDbEntity
8
0
100
AcDbLine
62
7
6
CONTINUOUS
10
96.2390940570
20
239.0374803115
11
96.5125868701
21
239.0971097518
0
LINE
5
31E
100
AcDbEntity
8
0
100
AcDbLine
62
7
6
CONTINUOUS
10
114.5188219928
20
241.3338098098
11
113.2288220310
21
241.3338098098
0
LINE
5
31F
100
AcDbEntity
8
0
100
AcDbLine
62
7
6
CONTINUOUS
10
111.0788219915
20
241.3338098098
11
110.7921553188
21
241.3338098098
0
LINE
5
320
100
AcDbEntity
8
0
100
AcDbLine
62
7
6
CONTINUOUS
10
106.7788222217
20
242.7061509658
11
107.9971552276
21
242.7061509658
0
LINE
5
321
100
AcDbEntity
8
0
100
AcDbLine
62
7
6
CONTINUOUS
10
108.1404886627
20
243.2550859023
11
106.7788222217
21
243.2550859023
0
LINE
5
322
100
AcDbEntity
8
0
100
AcDbLine
62
7
6
CONTINUOUS
10
113.2288220310
20
244.5359391738
11
114.5188219928
21
244.5359391738
0
LINE
5
323
100
AcDbEntity
8
0
100
AcDbLine
62
7
6
CONTINUOUS
10
106.7788222217
20
244.6274270584
11
108.1404886627
21
244.6274270584
0
LINE
5
324
100
AcDbEntity
8
0
100
AcDbLine
62
7
6
CONTINUOUS
10
108.4271552944
20
244.9933824111
11
108.0688219451
21
245.0848741104
0
LINE
5
325
100
AcDbEntity
8
0
100
AcDbLine
62
7
6
CONTINUOUS
10
114.5188219928
20
244.5359391738
11
114.8054886245
21
244.4444474746
0
LINE
5
326
100
AcDbEntity
8
0
100
AcDbLine
62
7
6
CONTINUOUS
10
115.1638219737
20
244.8104066421
11
114.8771553420
21
244.9933824111
0
LINE
5
327
100
AcDbEntity
8
0
100
AcDbLine
62
7
6
CONTINUOUS
10
114.5188219928
20
245.0848741104
11
112.7988219642
21
245.0848741104
0
LINE
5
328
100
AcDbEntity
8
0
100
AcDbLine
62
7
6
CONTINUOUS
10
112.2254887008
20
245.0848741104
11
111.7954886341
21
245.0848741104
0
LINE
5
329
100
AcDbEntity
8
0
100
AcDbLine
62
7
6
CONTINUOUS
10
110.0754886651
20
245.0848741104
11
109.6454886579
21
245.0848741104
0
LINE
5
32A
100
AcDbEntity
8
0
100
AcDbLine
62
7
6
CONTINUOUS
10
108.0688219451
20
245.0848741104
11
106.3488219165
21
245.0848741104
0
LINE
5
32B
100
AcDbEntity
8
0
100
AcDbLine
62
7
6
CONTINUOUS
10
114.8771553420
20
244.9933824111
11
114.5188219928
21
245.0848741104
0
LINE
5
32C
100
AcDbEntity
8
0
100
AcDbLine
62
7
6
CONTINUOUS
10
112.5495557223
20
248.9745498391
11
136.2759285289
21
239.1467644367
0
LINE
5
32D
100
AcDbEntity
8
0
100
AcDbLine
62
7
6
CONTINUOUS
10
138.4407129295
20
236.9819800361
11
148.2684983319
21
213.2556072295
0
LINE
5
32E
100
AcDbEntity
8
0
100
AcDbLine
62
7
6
CONTINUOUS
10
148.2684983319
20
210.1941397705
11
138.1902136003
21
185.8630080859
0
LINE
5
32F
100
AcDbEntity
8
0
100
AcDbLine
62
7
6
CONTINUOUS
10
130.5188219928
20
176.7248735000
11
131.0188219928
21
177.2248735000
0
LINE
5
330
100
AcDbEntity
8
0
100
AcDbLine
62
7
6
CONTINUOUS
10
275.8771291666
20
176.7248735000
11
275.3771291666
21
177.2248735000
0
LINE
5
331
100
AcDbEntity
8
0
100
AcDbLine
62
7
6
CONTINUOUS
10
275.8774699995
20
176.7248735000
11
314.8767883338
21
176.7248735000
0
LINE
5
332
100
AcDbEntity
8
0
100
AcDbLine
62
7
6
CONTINUOUS
10
275.3771291666
20
177.2248735000
11
315.3771291666
21
177.2248735000
0
LINE
5
333
100
AcDbEntity
8
DEFAULT_2
100
AcDbLine
62
8
6
HIDDEN
10
305.3771291666
20
178.2248735000
11
285.3771291666
21
178.2248735000
0
LINE
5
334
100
AcDbEntity
8
0
100
AcDbLine
62
7
6
CONTINUOUS
10
304.6997653036
20
184.9370332344
11
286.0544930297
21
184.9370332344
0
LINE
5
335
100
AcDbEntity
8
0
100
AcDbLine
62
7
6
CONTINUOUS
10
275.3771291666
20
177.2248735000
11
275.3771291666
21
185.7618084782
0
LINE
5
336
100
AcDbEntity
8
0
100
AcDbLine
62
7
6
CONTINUOUS
10
277.9078257715
20
188.7248735000
11
284.1656601994
21
189.7160171035
0
LINE
5
337
100
AcDbEntity
8
0
100
AcDbLine
62
7
6
CONTINUOUS
10
312.8464325618
20
188.7248735000
11
306.5895146138
21
189.7158719474
0
LINE
5
338
100
AcDbEntity
8
DEFAULT_2
100
AcDbLine
62
8
6
HIDDEN
10
285.3771291666
20
191.2651721244
11
285.3771291666
21
178.2248735000
0
LINE
5
339
100
AcDbEntity
8
0
100
AcDbLine
62
7
6
CONTINUOUS
10
287.3771291666
20
247.7790316967
11
287.3771291666
21
212.5621896088
0
LINE
5
33A
100
AcDbEntity
8
0
100
AcDbLine
62
7
6
CONTINUOUS
10
287.2839397753
20
210.8927593231
11
284.2527328027
21
183.8262632587
0
LINE
5
33B
100
AcDbEntity
8
DEFAULT_1
100
AcDbLine
62
2
6
CENTER
10
295.3771291666
20
252.1070516459
11
295.3771291666
21
173.7248735000
0
LINE
5
33C
100
AcDbEntity
8
0
100
AcDbLine
62
7
6
CONTINUOUS
10
303.3771291666
20
215.4748735000
11
303.6771291666
21
215.4748735000
0
LINE
5
33D
100
AcDbEntity
8
0
100
AcDbLine
62
7
6
CONTINUOUS
10
303.3771291666
20
216.9596519042
11
303.6771291666
21
216.9596519042
0
LINE
5
33E
100
AcDbEntity
8
0
100
AcDbLine
62
7
6
CONTINUOUS
10
303.3771291666
20
218.3588189651
11
303.6771291666
21
218.3588189651
0
LINE
5
33F
100
AcDbEntity
8
0
100
AcDbLine
62
7
6
CONTINUOUS
10
303.3771291666
20
218.6187214424
11
303.6771291666
21
218.6187214424
0
LINE
5
340
100
AcDbEntity
8
0
100
AcDbLine
62
7
6
CONTINUOUS
10
303.3771291666
20
218.7571429778
11
303.6771291666
21
218.7571429778
0
LINE
5
341
100
AcDbEntity
8
0
100
AcDbLine
62
7
6
CONTINUOUS
10
303.3771291666
20
218.8056745101
11
303.6771291666
21
218.8056745101
0
LINE
5
342
100
AcDbEntity
8
0
100
AcDbLine
62
7
6
CONTINUOUS
10
303.3771291666
20
212.5621896088
11
303.3771291666
21
247.7790316967
0
LINE
5
343
100
AcDbEntity
8
0
100
AcDbLine
62
7
6
CONTINUOUS
10
303.6771291666
20
245.0848741104
11
303.6771291666
21
235.3948735763
0
LINE
5
344
100
AcDbEntity
8
0
100
AcDbLine
62
7
6
CONTINUOUS
10
303.6771291666
20
233.1787309219
11
303.6771291666
21
224.2196692993
0
LINE
5
345
100
AcDbEntity
8
0
100
AcDbLine
62
7
6
CONTINUOUS
10
303.6771291666
20
222.4397239257
11
303.6771291666
21
215.4748735000
0
LINE
5
346
100
AcDbEntity
8
0
100
AcDbLine
62
7
6
CONTINUOUS
10
303.3771291666
20
219.6413893272
11
303.6771291666
21
219.6413893272
0
LINE
5
347
100
AcDbEntity
8
0
100
AcDbLine
62
7
6
CONTINUOUS
10
303.3771291666
20
220.1660766174
11
303.6771291666
21
220.1660766174
0
LINE
5
348
100
AcDbEntity
8
0
100
AcDbLine
62
7
6
CONTINUOUS
10
306.5015254979
20
183.8262635507
11
303.4703185580
21
210.8927593231
0
LINE
5
349
100
AcDbEntity
8
DEFAULT_2
100
AcDbLine
62
8
6
HIDDEN
10
305.3771291666
20
191.2651341078
11
305.3771291666
21
178.2248735000
0
LINE
5
34A
100
AcDbEntity
8
0
100
AcDbLine
62
7
6
CONTINUOUS
10
303.3771291666
20
221.9150361587
11
303.6771291666
21
221.9150361587
0
LINE
5
34B
100
AcDbEntity
8
0
100
AcDbLine
62
7
6
CONTINUOUS
10
303.3771291666
20
222.4397239257
11
303.6771291666
21
222.4397239257
0
LINE
5
34C
100
AcDbEntity
8
0
100
AcDbLine
62
7
6
CONTINUOUS
10
303.3771291666
20
224.2196692993
11
303.6771291666
21
224.2196692993
0
LINE
5
34D
100
AcDbEntity
8
0
100
AcDbLine
62
7
6
CONTINUOUS
10
303.3771291666
20
225.7044477035
11
303.6771291666
21
225.7044477035
0
LINE
5
34E
100
AcDbEntity
8
0
100
AcDbLine
62
7
6
CONTINUOUS
10
303.3771291666
20
226.2291354705
11
303.6771291666
21
226.2291354705
0
LINE
5
34F
100
AcDbEntity
8
0
100
AcDbLine
62
7
6
CONTINUOUS
10
303.3771291666
20
227.9780950118
11
303.6771291666
21
227.9780950118
0
LINE
5
350
100
AcDbEntity
8
0
100
AcDbLine
62
7
6
CONTINUOUS
10
303.3771291666
20
228.5027818252
11
303.6771291666
21
228.5027818252
0
LINE
5
351
100
AcDbEntity
8
0
100
AcDbLine
62
7
6
CONTINUOUS
10
303.3771291666
20
228.6799687911
11
303.6771291666
21
228.6799687911
0
LINE
5
352
100
AcDbEntity
8
0
100
AcDbLine
62
7
6
CONTINUOUS
10
303.3771291666
20
228.8646325637
11
303.6771291666
21
228.8646325637
0
LINE
5
353
100
AcDbEntity
8
0
100
AcDbLine
62
7
6
CONTINUOUS
10
303.3771291666
20
229.2241906692
11
303.6771291666
21
229.2241906692
0
LINE
5
354
100
AcDbEntity
8
0
100
AcDbLine
62
7
6
CONTINUOUS
10
303.3771291666
20
229.5205678512
11
303.6771291666
21
229.5205678512
0
LINE
5
355
100
AcDbEntity
8
DEFAULT_2
100
AcDbLine
62
8
6
HIDDEN
10
285.3771291666
20
178.2248735000
11
283.8771291666
21
176.7248735000
0
LINE
5
356
100
AcDbEntity
8
0
100
AcDbLine
62
7
6
CONTINUOUS
10
303.3771291666
20
229.9602479507
11
303.6771291666
21
229.9602479507
0
LINE
5
357
100
AcDbEntity
8
0
100
AcDbLine
62
7
6
CONTINUOUS
10
303.3771291666
20
230.1934423019
11
303.6771291666
21
230.1934423019
0
LINE
5
358
100
AcDbEntity
8
0
100
AcDbLine
62
7
6
CONTINUOUS
10
303.3771291666
20
230.5116433669
11
303.6771291666
21
230.5116433669
0
LINE
5
359
100
AcDbEntity
8
0
100
AcDbLine
62
7
6
CONTINUOUS
10
303.3771291666
20
230.6816567947
11
303.6771291666
21
230.6816567947
0
LINE
5
35A
100
AcDbEntity
8
0
100
AcDbLine
62
7
6
CONTINUOUS
10
303.3771291666
20
230.7884873916
11
303.6771291666
21
230.7884873916
0
LINE
5
35B
100
AcDbEntity
8
0
100
AcDbLine
62
7
6
CONTINUOUS
10
303.3771291666
20
230.9340829421
11
303.6771291666
21
230.9340829421
0
LINE
5
35C
100
AcDbEntity
8
0
100
AcDbLine
62
7
6
CONTINUOUS
10
303.3771291666
20
231.1503362228
11
303.6771291666
21
231.1503362228
0
LINE
5
35D
100
AcDbEntity
8
0
100
AcDbLine
62
7
6
CONTINUOUS
10
303.3771291666
20
231.3034085800
11
303.6771291666
21
231.3034085800
0
LINE
5
35E
100
AcDbEntity
8
0
100
AcDbLine
62
7
6
CONTINUOUS
10
303.3771291666
20
231.5463685562
11
303.6771291666
21
231.5463685562
0
LINE
5
35F
100
AcDbEntity
8
0
100
AcDbLine
62
7
6
CONTINUOUS
10
303.3771291666
20
231.8160390426
11
303.6771291666
21
231.8160390426
0
LINE
5
360
100
AcDbEntity
8
0
100
AcDbLine
62
7
6
CONTINUOUS
10
303.3771291666
20
232.2023038436
11
303.6771291666
21
232.2023038436
0
LINE
5
361
100
AcDbEntity
8
0
100
AcDbLine
62
7
6
CONTINUOUS
10
303.3771291666
20
232.5836877395
11
303.6771291666
21
232.5836877395
0
LINE
5
362
100
AcDbEntity
8
0
100
AcDbLine
62
7
6
CONTINUOUS
10
315.3771291666
20
177.2248735000
11
315.3771291666
21
185.7618084782
0
LINE
5
363
100
AcDbEntity
8
0
100
AcDbLine
62
7
6
CONTINUOUS
10
303.3771291666
20
232.9018888046
11
303.6771291666
21
232.9018888046
0
LINE
5
364
100
AcDbEntity
8
0
100
AcDbLine
62
7
6
CONTINUOUS
10
303.3771291666
20
233.0986089279
11
303.6771291666
21
233.0986089279
0
LINE
5
365
100
AcDbEntity
8
0
100
AcDbLine
62
7
6
CONTINUOUS
10
303.3771291666
20
233.1787309219
11
303.6771291666
21
233.1787309219
0
LINE
5
366
100
AcDbEntity
8
0
100
AcDbLine
62
7
6
CONTINUOUS
10
303.3771291666
20
235.3948735763
11
303.6771291666
21
235.3948735763
0
LINE
5
367
100
AcDbEntity
8
0
100
AcDbLine
62
7
6
CONTINUOUS
10
303.3771291666
20
237.5534104873
11
303.6771291666
21
237.5534104873
0
LINE
5
368
100
AcDbEntity
8
0
100
AcDbLine
62
7
6
CONTINUOUS
10
303.3771291666
20
238.1430444290
11
303.6771291666
21
238.1430444290
0
LINE
5
369
100
AcDbEntity
8
0
100
AcDbLine
62
7
6
CONTINUOUS
10
303.3771291666
20
238.8589753677
11
303.6771291666
21
238.8589753677
0
LINE
5
36A
100
AcDbEntity
8
0
100
AcDbLine
62
7
6
CONTINUOUS
10
303.3771291666
20
239.0589742233
11
303.6771291666
21
239.0589742233
0
LINE
5
36B
100
AcDbEntity
8
0
100
AcDbLine
62
7
6
CONTINUOUS
10
303.3771291666
20
239.9589757491
11
303.6771291666
21
239.9589757491
0
LINE
5
36C
100
AcDbEntity
8
0
100
AcDbLine
62
7
6
CONTINUOUS
10
303.3771291666
20
241.0923089553
11
303.6771291666
21
241.0923089553
0
LINE
5
36D
100
AcDbEntity
8
0
100
AcDbLine
62
7
6
CONTINUOUS
10
303.3771291666
20
241.1763791610
11
303.6771291666
21
241.1763791610
0
LINE
5
36E
100
AcDbEntity
8
0
100
AcDbLine
62
7
6
CONTINUOUS
10
303.3771291666
20
241.3430451919
11
303.6771291666
21
241.3430451919
0
LINE
5
36F
100
AcDbEntity
8
0
100
AcDbLine
62
7
6
CONTINUOUS
10
303.3771291666
20
245.0848741104
11
303.6771291666
21
245.0848741104
0
LINE
5
370
100
AcDbEntity
8
0
100
AcDbLine
62
7
6
CONTINUOUS
10
314.8771291666
20
176.7248735000
11
315.3771291666
21
177.2248735000
0
LINE
5
371
100
AcDbEntity
8
0
100
AcDbLine
62
7
6
CONTINUOUS
10
301.8771291666
20
249.2790317091
11
288.8771291666
21
249.2790317091
0
LINE
5
372
100
AcDbEntity
8
0
100
AcDbLine
62
7
6
CONTINUOUS
10
73.4646637838
20
106.0914339781
11
73.4646637838
21
119.1354858687
0
LINE
5
373
100
AcDbEntity
8
0
100
AcDbLine
62
7
6
CONTINUOUS
10
77.8909037494
20
104.6134599226
11
77.8909037494
21
104.3134599226
0
LINE
5
374
100
AcDbEntity
8
0
100
AcDbLine
62
7
6
CONTINUOUS
10
88.0948851489
20
104.6134599226
11
88.0948851489
21
104.3134599226
0
LINE
5
375
100
AcDbEntity
8
0
100
AcDbLine
62
7
6
CONTINUOUS
10
92.1366942310
20
104.6134599226
11
92.1366942310
21
104.3134599226
0
LINE
5
376
100
AcDbEntity
8
0
100
AcDbLine
62
7
6
CONTINUOUS
10
92.1852324390
20
104.6134599226
11
92.1852324390
21
104.3134599226
0
LINE
5
377
100
AcDbEntity
8
0
100
AcDbLine
62
7
6
CONTINUOUS
10
147.2566363939
20
104.5629430493
11
137.1958930369
21
101.8428152429
0
LINE
5
378
100
AcDbEntity
8
0
100
AcDbLine
62
7
6
CONTINUOUS
10
147.2656423439
20
104.5653495895
11
147.2652807774
21
104.5652541713
0
LINE
5
379
100
AcDbEntity
8
0
100
AcDbLine
62
7
6
CONTINUOUS
10
74.7720019218
20
104.5653509850
11
74.7723824128
21
104.5652505694
0
LINE
5
37A
100
AcDbEntity
8
0
100
AcDbLine
62
7
6
CONTINUOUS
10
84.8417509488
20
101.8428152429
11
74.7810075917
21
104.5629430493
0
LINE
5
37B
100
AcDbEntity
8
0
100
AcDbLine
62
7
6
CONTINUOUS
10
99.9009993457
20
104.6134599226
11
99.9009993457
21
104.3134599226
0
LINE
5
37C
100
AcDbEntity
8
0
100
AcDbLine
62
7
6
CONTINUOUS
10
136.8043943015
20
101.7908237857
11
134.2155556468
21
101.7908237857
0
LINE
5
37D
100
AcDbEntity
8
0
100
AcDbLine
62
7
6
CONTINUOUS
10
87.8220882689
20
101.7908237857
11
85.2332496841
21
101.7908237857
0
LINE
5
37E
100
AcDbEntity
8
0
100
AcDbLine
62
7
6
CONTINUOUS
10
115.6654885196
20
104.3134599226
11
112.7988219642
21
104.3134599226
0
LINE
5
37F
100
AcDbEntity
8
0
100
AcDbLine
62
7
6
CONTINUOUS
10
112.2254887008
20
104.3134599226
11
109.6454886579
21
104.3134599226
0
LINE
5
380
100
AcDbEntity
8
0
100
AcDbLine
62
7
6
CONTINUOUS
10
109.0721552753
20
104.3134599226
11
106.3488219165
21
104.3134599226
0
LINE
5
381
100
AcDbEntity
8
0
100
AcDbLine
62
7
6
CONTINUOUS
10
99.9009993457
20
104.3134599226
11
92.1366942310
21
104.3134599226
0
LINE
5
382
100
AcDbEntity
8
0
100
AcDbLine
62
7
6
CONTINUOUS
10
88.0948851489
20
104.3134599226
11
77.8909037494
21
104.3134599226
0
LINE
5
383
100
AcDbEntity
8
0
100
AcDbLine
62
7
6
CONTINUOUS
10
75.1090530914
20
104.6134599226
11
146.9285908943
21
104.6134599226
0
LINE
5
384
100
AcDbEntity
8
0
100
AcDbLine
62
7
6
CONTINUOUS
10
106.3488219165
20
104.6134599226
11
106.3488219165
21
104.3134599226
0
LINE
5
385
100
AcDbEntity
8
0
100
AcDbLine
62
7
6
CONTINUOUS
10
109.0721552753
20
104.6134599226
11
109.0721552753
21
104.3134599226
0
LINE
5
386
100
AcDbEntity
8
0
100
AcDbLine
62
7
6
CONTINUOUS
10
109.6454886579
20
104.6134599226
11
109.6454886579
21
104.3134599226
0
LINE
5
387
100
AcDbEntity
8
DEFAULT_1
100
AcDbLine
62
2
6
CENTER
10
111.0188219928
20
112.6134599226
11
111.0188219928
21
89.6134599226
0
LINE
5
388
100
AcDbEntity
8
DEFAULT_1
100
AcDbLine
62
2
6
CENTER
10
111.0188219928
20
112.6134599226
11
111.0188219928
21
135.6134599226
0
LINE
5
389
100
AcDbEntity
8
DEFAULT_1
100
AcDbLine
62
2
6
CENTER
10
111.0188219928
20
112.6134599226
11
88.0188219928
21
112.6134599226
0
LINE
5
38A
100
AcDbEntity
8
DEFAULT_1
100
AcDbLine
62
2
6
CENTER
10
111.0188219928
20
112.6134599226
11
134.0188219928
21
112.6134599226
0
LINE
5
38B
100
AcDbEntity
8
0
100
AcDbLine
62
7
6
CONTINUOUS
10
112.2254887008
20
104.6134599226
11
112.2254887008
21
104.3134599226
0
LINE
5
38C
100
AcDbEntity
8
0
100
AcDbLine
62
7
6
CONTINUOUS
10
112.7988219642
20
104.6134599226
11
112.7988219642
21
104.3134599226
0
LINE
5
38D
100
AcDbEntity
8
0
100
AcDbLine
62
7
6
CONTINUOUS
10
115.6654885196
20
104.6134599226
11
115.6654885196
21
104.3134599226
0
LINE
5
38E
100
AcDbEntity
8
0
100
AcDbLine
62
7
6
CONTINUOUS
10
146.9285908943
20
120.6134599226
11
75.1090530914
21
120.6134599226
0
LINE
5
38F
100
AcDbEntity
8
0
100
AcDbLine
62
7
6
CONTINUOUS
10
85.2332496841
20
123.4360960596
11
87.8220883388
21
123.4360960596
0
LINE
5
390
100
AcDbEntity
8
0
100
AcDbLine
62
7
6
CONTINUOUS
10
134.2155557167
20
123.4360960596
11
136.8043943015
21
123.4360960596
0
LINE
5
391
100
AcDbEntity
8
0
100
AcDbLine
62
7
6
CONTINUOUS
10
74.7810075917
20
120.6639767960
11
84.8417509488
21
123.3841046024
0
LINE
5
392
100
AcDbEntity
8
0
100
AcDbLine
62
7
6
CONTINUOUS
10
74.7720016397
20
120.6615702552
11
74.7723672959
21
120.6616667520
0
LINE
5
393
100
AcDbEntity
8
0
100
AcDbLine
62
7
6
CONTINUOUS
10
147.2656420939
20
120.6615689311
11
147.2652677006
21
120.6616677381
0
LINE
5
394
100
AcDbEntity
8
0
100
AcDbLine
62
7
6
CONTINUOUS
10
137.1958930369
20
123.3841046024
11
147.2566363939
21
120.6639767960
0
LINE
5
395
100
AcDbEntity
8
0
100
AcDbLine
62
7
6
CONTINUOUS
10
148.5729802019
20
106.0914338439
11
148.5729802019
21
119.1354865631
0
ARC
5
396
100
AcDbEntity
8
0
100
AcDbCircle
62
7
6
CONTINUOUS
10
86.0188219928
20
179.9370332344
40
5.0000000000
100
AcDbArc
50
0.0000000000
51
90.0000000000
0
ARC
5
397
100
AcDbEntity
8
0
100
AcDbCircle
62
7
6
CONTINUOUS
10
136.0188219928
20
179.9370332344
40
5.0000000000
100
AcDbArc
50
90.0000000000
51
180.0000000000
0
ARC
5
398
100
AcDbEntity
8
0
100
AcDbCircle
62
7
6
CONTINUOUS
10
111.0188219928
20
211.7248735000
40
20.0000000000
100
AcDbArc
50
286.4234579669
51
253.5765411396
0
ARC
5
399
100
AcDbEntity
8
0
100
AcDbCircle
62
7
6
CONTINUOUS
10
134.7451947995
20
235.4512463066
40
4.0000000000
100
AcDbArc
50
22.5000000000
51
67.5000000000
0
ARC
5
39A
100
AcDbEntity
8
0
100
AcDbCircle
62
7
6
CONTINUOUS
10
111.0188219928
20
245.2790317091
40
4.0000000000
100
AcDbArc
50
67.5000000000
51
112.5000000000
0
ARC
5
39B
100
AcDbEntity
8
0
100
AcDbCircle
62
7
6
CONTINUOUS
10
87.2924491862
20
235.4512463066
40
4.0000000000
100
AcDbArc
50
112.5000000000
51
157.5000000000
0
ARC
5
39C
100
AcDbEntity
8
0
100
AcDbCircle
62
7
6
CONTINUOUS
10
77.4646637838
20
211.7248735000
40
4.0000000000
100
AcDbArc
50
157.5000000000
51
202.5000000000
0
ARC
5
39D
100
AcDbEntity
8
0
100
AcDbCircle
62
7
6
CONTINUOUS
10
144.5729802019
20
211.7248735000
40
4.0000000000
100
AcDbArc
50
337.5000000000
51
22.5000000000
0
ARC
5
39E
100
AcDbEntity
8
0
100
AcDbCircle
62
7
6
CONTINUOUS
10
85.2332496841
20
186.4370332344
40
1.5000000000
100
AcDbArc
50
202.5000000000
51
270.0000000000
0
ARC
5
39F
100
AcDbEntity
8
0
100
AcDbCircle
62
7
6
CONTINUOUS
10
136.8043943015
20
186.4370332344
40
1.5000000000
100
AcDbArc
50
270.0000000000
51
337.5000000000
0
ARC
5
3A0
100
AcDbEntity
8
DEFAULT_2
100
AcDbCircle
62
8
6
HIDDEN
10
295.3771291666
20
239.7248735000
40
8.0000000000
100
AcDbArc
50
180.0000000000
51
360.0000000000
0
ARC
5
3A1
100
AcDbEntity
8
0
100
AcDbCircle
62
7
6
CONTINUOUS
10
306.7287790157
20
190.7062755808
40
1.0000057429
100
AcDbArc
50
195.9354525683
51
260.9999792372
0
ARC
5
3A2
100
AcDbEntity
8
0
100
AcDbCircle
62
7
6
CONTINUOUS
10
288.8771291666
20
247.7790317091
40
1.5000000000
100
AcDbArc
50
90.0000000000
51
180.0000000000
0
ARC
5
3A3
100
AcDbEntity
8
0
100
AcDbCircle
62
7
6
CONTINUOUS
10
301.8771291666
20
247.7790317091
40
1.5000000000
100
AcDbArc
50
0.0000000000
51
90.0000000000
0
ARC
5
3A4
100
AcDbEntity
8
0
100
AcDbCircle
62
7
6
CONTINUOUS
10
278.3771291666
20
185.7618084782
40
3.0000000000
100
AcDbArc
50
99.0000000000
51
180.0000000000
0
ARC
5
3A5
100
AcDbEntity
8
0
100
AcDbCircle
62
7
6
CONTINUOUS
10
312.3771291666
20
185.7618084782
40
3.0000000000
100
AcDbArc
50
0.0000000000
51
81.0000000000
0
ARC
5
3A6
100
AcDbEntity
8
0
100
AcDbCircle
62
7
6
CONTINUOUS
10
318.3771291666
20
212.5621896088
40
15.0000000000
100
AcDbArc
50
180.0000000000
51
186.3899923371
0
ARC
5
3A7
100
AcDbEntity
8
0
100
AcDbCircle
62
7
6
CONTINUOUS
10
272.3771291666
20
212.5621896088
40
15.0000000000
100
AcDbArc
50
353.6100076629
51
360.0000000000
0
ARC
5
3A8
100
AcDbEntity
8
0
100
AcDbCircle
62
7
6
CONTINUOUS
10
304.6997653036
20
186.4370332344
40
1.5000000000
100
AcDbArc
50
270.0000000000
51
6.3899923371
0
ARC
5
3A9
100
AcDbEntity
8
0
100
AcDbCircle
62
7
6
CONTINUOUS
10
286.0544930297
20
186.4370332344
40
1.5000000000
100
AcDbArc
50
173.6100076629
51
270.0000000000
0
ARC
5
3AA
100
AcDbEntity
8
DEFAULT_2
100
AcDbCircle
62
8
6
HIDDEN
10
111.0188219928
20
112.6134599226
40
10.0000000000
100
AcDbArc
50
306.8097518657
51
53.1902293606
0
ARC
5
3AB
100
AcDbEntity
8
DEFAULT_2
100
AcDbCircle
62
8
6
HIDDEN
10
111.0188219928
20
112.6134599226
40
10.0000000000
100
AcDbArc
50
126.8097563156
51
233.1902222531
0
ARC
5
3AC
100
AcDbEntity
8
0
100
AcDbCircle
62
7
6
CONTINUOUS
10
128.1377643878
20
124.7766033932
40
1.0000027026
100
AcDbArc
50
215.3937396416
51
261.1124174143
0
ARC
5
3AD
100
AcDbEntity
8
0
100
AcDbCircle
62
7
6
CONTINUOUS
10
93.8998793097
20
124.7766030047
40
1.0000026397
100
AcDbArc
50
278.8877491157
51
324.6062541661
0
ARC
5
3AE
100
AcDbEntity
8
0
100
AcDbCircle
62
7
6
CONTINUOUS
10
93.8998795979
20
100.4503164520
40
1.0000027026
100
AcDbArc
50
35.3937396416
51
81.1124174143
0
ARC
5
3AF
100
AcDbEntity
8
0
100
AcDbCircle
62
7
6
CONTINUOUS
10
128.1377646760
20
100.4503168406
40
1.0000026397
100
AcDbArc
50
98.8877491157
51
144.6062541661
0
ARC
5
3B0
100
AcDbEntity
8
0
100
AcDbCircle
62
7
6
CONTINUOUS
10
111.0188219928
20
112.6134599226
40
10.0000000000
100
AcDbArc
50
53.1902293606
51
126.8097563156
0
ARC
5
3B1
100
AcDbEntity
8
0
100
AcDbCircle
62
7
6
CONTINUOUS
10
111.0188219928
20
112.6134599226
40
10.0000000000
100
AcDbArc
50
233.1902222531
51
306.8097518657
0
ARC
5
3B2
100
AcDbEntity
8
0
100
AcDbCircle
62
7
6
CONTINUOUS
10
111.0188219928
20
112.6134599226
40
20.0000000000
100
AcDbArc
50
214.5640950996
51
325.4359049004
0
ARC
5
3B3
100
AcDbEntity
8
0
100
AcDbCircle
62
7
6
CONTINUOUS
10
111.0188219928
20
112.6134599226
40
20.0000000000
100
AcDbArc
50
34.5640950996
51
145.4359049004
0
SPLINE
5
3B4
100
AcDbEntity
8
0
100
AcDbSpline
62
7
6
CONTINUOUS
70
0
71
3
72
16
73
12
74
10
42
0.0000001000
43
0.0000001000
44
0.0000000001
40
0.0000000000
40
0.0000000000
40
0.0000000000
40
0.0000000000
40
0.1124992209
40
0.2338662355
40
0.3468624192
40
0.4509028853
40
0.5510439929
40
0.6546532054
40
0.7670424400
40
0.8877852435
40
1.0000000000
40
1.0000000000
40
1.0000000000
40
1.0000000000
10
116.6734782296
20
192.5408989257
30
0.0000000000
10
116.2545987198
20
192.4174296100
30
0.0000000000
10
115.3898270007
20
192.1409747993
30
0.0000000000
10
114.1029397600
20
191.7445478530
30
0.0000000000
10
112.8288479153
20
191.4206965547
30
0.0000000000
10
111.6082538848
20
191.2352512135
30
0.0000000000
10
110.4083521629
20
191.2371712464
30
0.0000000000
10
109.1922245993
20
191.4244788042
30
0.0000000000
10
107.9246317441
20
191.7475754093
30
0.0000000000
10
106.6434107787
20
192.1424021625
30
0.0000000000
10
105.7819859304
20
192.4177418513
30
0.0000000000
10
105.3641655969
20
192.5408989703
30
0.0000000000
11
116.6734782296
21
192.5408989257
31
0.0000000000
11
115.4219487125
21
192.1535795366
31
0.0000000000
11
114.0684311392
21
191.7466646794
31
0.0000000000
11
112.7902296608
21
191.4340295481
31
0.0000000000
11
111.5905900790
21
191.2642977530
31
0.0000000000
11
110.4244133196
21
191.2660036186
31
0.0000000000
11
109.2301004269
21
191.4375160807
31
0.0000000000
11
107.9590211542
21
191.7495185760
31
0.0000000000
11
106.6125342786
21
192.1545711328
31
0.0000000000
11
105.3641655969
21
192.5408989703
31
0.0000000000
0
SPLINE
5
3B5
100
AcDbEntity
8
0
100
AcDbSpline
62
7
6
CONTINUOUS
70
0
71
3
72
9
73
5
74
3
42
0.0000001000
43
0.0000001000
44
0.0000000001
40
0.0000000000
40
0.0000000000
40
0.0000000000
40
0.0000000000
40
0.1331387324
40
1.0000000000
40
1.0000000000
40
1.0000000000
40
1.0000000000
10
284.9881559427
20
190.4357418868
30
0.0000000000
10
284.9880995248
20
190.4355310247
30
0.0000000000
10
284.9876743726
20
190.4339476222
30
0.0000000000
10
284.9872386744
20
190.4323670599
30
0.0000000000
10
284.9868528906
20
190.4309991762
30
0.0000000000
11
284.9881559427
21
190.4357418868
31
0.0000000000
11
284.9879861294
21
190.4351094506
31
0.0000000000
11
284.9868528906
21
190.4309991762
31
0.0000000000
0
SPLINE
5
3B6
100
AcDbEntity
8
0
100
AcDbSpline
62
7
6
CONTINUOUS
70
0
71
3
72
8
73
4
74
2
42
0.0000001000
43
0.0000001000
44
0.0000000001
40
0.0000000000
40
0.0000000000
40
0.0000000000
40
0.0000000000
40
1.0000000000
40
1.0000000000
40
1.0000000000
40
1.0000000000
10
284.9854654035
20
190.4262077178
30
0.0000000000
10
284.9725436272
20
190.3819170432
30
0.0000000000
10
284.9564811262
20
190.3384100749
30
0.0000000000
10
284.9374846281
20
190.2961725349
30
0.0000000000
11
284.9854654035
21
190.4262077178
31
0.0000000000
11
284.9374846281
21
190.2961725349
31
0.0000000000
0
SPLINE
5
3B7
100
AcDbEntity
8
0
100
AcDbSpline
62
7
6
CONTINUOUS
70
0
71
3
72
12
73
8
74
6
42
0.0000001000
43
0.0000001000
44
0.0000000001
40
0.0000000000
40
0.0000000000
40
0.0000000000
40
0.0000000000
40
0.1398443591
40
0.4198149596
40
0.6997916278
40
0.9797739261
40
1.0000000000
40
1.0000000000
40
1.0000000000
40
1.0000000000
10
284.9374846281
20
190.2961725349
30
0.0000000000
10
284.9185256771
20
190.2540184786
30
0.0000000000
10
284.8528374873
20
190.1312671347
30
0.0000000000
10
284.7025273132
20
189.9529002391
30
0.0000000000
10
284.4702147485
20
189.7962344865
30
0.0000000000
10
284.2864071022
20
189.7361211744
30
0.0000000000
10
284.1885258055
20
189.7196424179
30
0.0000000000
10
284.1819202065
20
189.7185986062
30
0.0000000000
11
284.9374846281
21
190.2961725349
31
0.0000000000
11
284.8720460485
21
190.1739864592
31
0.0000000000
11
284.6938785972
21
189.9624715300
31
0.0000000000
11
284.4645856265
21
189.8078421190
31
0.0000000000
11
284.2017024212
21
189.7219292694
31
0.0000000000
11
284.1819202065
21
189.7185986062
31
0.0000000000
0
SPLINE
5
3B8
100
AcDbEntity
8
0
100
AcDbSpline
62
7
6
CONTINUOUS
70
0
71
3
72
10
73
6
74
4
42
0.0000001000
43
0.0000001000
44
0.0000000001
40
0.0000000000
40
0.0000000000
40
0.0000000000
40
0.0000000000
40
0.5207414342
40
0.8988497027
40
1.0000000000
40
1.0000000000
40
1.0000000000
40
1.0000000000
10
285.0001820637
20
190.5007146088
30
0.0000000000
10
284.9987452455
20
190.4881742407
30
0.0000000000
10
284.9955235287
20
190.4665872780
30
0.0000000000
10
284.9901594066
20
190.4429329344
30
0.0000000000
10
284.9870677942
20
190.4317350071
30
0.0000000000
10
284.9863913058
20
190.4293783443
30
0.0000000000
11
285.0001820637
21
190.5007146088
31
0.0000000000
11
284.9944753334
21
190.4632709404
31
0.0000000000
11
284.9883496003
21
190.4364679567
31
0.0000000000
11
284.9863913058
21
190.4293783443
31
0.0000000000
0
SPLINE
5
3B9
100
AcDbEntity
8
0
100
AcDbSpline
62
7
6
CONTINUOUS
70
0
71
3
72
8
73
4
74
2
42
0.0000001000
43
0.0000001000
44
0.0000000001
40
0.0000000000
40
0.0000000000
40
0.0000000000
40
0.0000000000
40
1.0000000000
40
1.0000000000
40
1.0000000000
40
1.0000000000
10
284.9863913058
20
190.4293783443
30
0.0000000000
10
284.9860875319
20
190.4283200962
30
0.0000000000
10
284.9857789216
20
190.4272632041
30
0.0000000000
10
284.9854654035
20
190.4262077178
30
0.0000000000
11
284.9863913058
21
190.4293783443
31
0.0000000000
11
284.9854654035
21
190.4262077178
31
0.0000000000
0
SPLINE
5
3BA
100
AcDbEntity
8
0
100
AcDbSpline
62
7
6
CONTINUOUS
70
0
71
3
72
8
73
4
74
2
42
0.0000001000
43
0.0000001000
44
0.0000000001
40
0.0000000000
40
0.0000000000
40
0.0000000000
40
0.0000000000
40
1.0000000000
40
1.0000000000
40
1.0000000000
40
1.0000000000
10
305.7672095931
20
190.4316916654
30
0.0000000000
10
305.7669196966
20
190.4327480967
30
0.0000000000
10
305.7666337554
20
190.4338053073
30
0.0000000000
10
305.7663517697
20
190.4348632972
30
0.0000000000
11
305.7672095931
21
190.4316916654
31
0.0000000000
11
305.7663517697
21
190.4348632972
31
0.0000000000
0
SPLINE
5
3BB
100
AcDbEntity
8
0
100
AcDbSpline
62
7
6
CONTINUOUS
70
0
71
3
72
9
73
5
74
3
42
0.0000001000
43
0.0000001000
44
0.0000000001
40
0.0000000000
40
0.0000000000
40
0.0000000000
40
0.0000000000
40
0.3558274379
40
1.0000000000
40
1.0000000000
40
1.0000000000
40
1.0000000000
10
305.7672018879
20
190.4317197480
30
0.0000000000
10
305.7649792374
20
190.4398200621
30
0.0000000000
10
305.7593869223
20
190.4627141350
30
0.0000000000
10
305.7556328942
20
190.4859717183
30
0.0000000000
10
305.7539774648
20
190.5011044570
30
0.0000000000
11
305.7672018879
21
190.4317197480
31
0.0000000000
11
305.7612321904
21
190.4561587659
31
0.0000000000
11
305.7539774648
21
190.5011044570
31
0.0000000000
0
SPLINE
5
3BC
100
AcDbEntity
8
0
100
AcDbSpline
62
7
6
CONTINUOUS
70
0
71
3
72
17
73
13
74
11
42
0.0000001000
43
0.0000001000
44
0.0000000001
40
0.0000000000
40
0.0000000000
40
0.0000000000
40
0.0000000000
40
0.1065771478
40
0.2399832038
40
0.3675688023
40
0.4877028016
40
0.5989827412
40
0.7003549122
40
0.7911066056
40
0.8708071839
40
0.9400289310
40
1.0000000000
40
1.0000000000
40
1.0000000000
40
1.0000000000
10
87.8220882652
20
101.7908263340
30
0.0000000000
10
88.0305611986
20
101.7908307140
30
0.0000000000
10
88.4999892854
20
101.7886207854
30
0.0000000000
10
89.2189100967
20
101.7776129592
30
0.0000000000
10
89.9641644321
20
101.7575553258
30
0.0000000000
10
90.6658874301
20
101.7305201994
30
0.0000000000
10
91.3160282125
20
101.6977320805
30
0.0000000000
10
91.9083647452
20
101.6606613974
30
0.0000000000
10
92.4385705636
20
101.6205994618
30
0.0000000000
10
92.9055735425
20
101.5790361010
30
0.0000000000
10
93.3119691550
20
101.5368503475
30
0.0000000000
10
93.5629866105
20
101.5067007553
30
0.0000000000
10
93.6792580517
20
101.4916311777
30
0.0000000000
11
87.8220882652
21
101.7908263340
31
0.0000000000
11
88.4474998345
21
101.7878862437
31
0.0000000000
11
89.2302616440
21
101.7758921087
31
0.0000000000
11
89.9786866503
21
101.7556728582
31
0.0000000000
11
90.6831296994
21
101.7284053548
31
0.0000000000
11
91.3353071456
21
101.6953783307
31
0.0000000000
11
91.9290050524
21
101.6580159160
31
0.0000000000
11
92.4600270776
21
101.6177127988
31
0.0000000000
11
92.9258625054
21
101.5760018668
31
0.0000000000
11
93.3298732889
21
101.5338168355
31
0.0000000000
11
93.6792580517
21
101.4916311777
31
0.0000000000
0
SPLINE
5
3BD
100
AcDbEntity
8
0
100
AcDbSpline
62
7
6
CONTINUOUS
70
0
71
3
72
8
73
4
74
2
42
0.0000001000
43
0.0000001000
44
0.0000000001
40
0.0000000000
40
0.0000000000
40
0.0000000000
40
0.0000000000
40
1.0000000000
40
1.0000000000
40
1.0000000000
40
1.0000000000
10
93.6792580517
20
101.4916311777
30
0.0000000000
10
93.7792261621
20
101.4786746237
30
0.0000000000
10
93.8790091686
20
101.4649239996
30
0.0000000000
10
93.9789399787
20
101.4498781338
30
0.0000000000
11
93.6792580517
21
101.4916311777
31
0.0000000000
11
93.9789399787
21
101.4498781338
31
0.0000000000
0
SPLINE
5
3BE
100
AcDbEntity
8
0
100
AcDbSpline
62
7
6
CONTINUOUS
70
0
71
3
72
8
73
4
74
2
42
0.0000001000
43
0.0000001000
44
0.0000000001
40
0.0000000000
40
0.0000000000
40
0.0000000000
40
0.0000000000
40
1.0000000000
40
1.0000000000
40
1.0000000000
40
1.0000000000
10
93.9789399787
20
101.4498781338
30
0.0000000000
10
94.0041057018
20
101.4460891112
30
0.0000000000
10
94.0292807985
20
101.4422179456
30
0.0000000000
10
94.0544328715
20
101.4382689797
30
0.0000000000
11
93.9789399787
21
101.4498781338
31
0.0000000000
11
94.0544328715
21
101.4382689797
31
0.0000000000
0
SPLINE
5
3BF
100
AcDbEntity
8
0
100
AcDbSpline
62
7
6
CONTINUOUS
70
0
71
3
72
9
73
5
74
3
42
0.0000001000
43
0.0000001000
44
0.0000000001
40
0.0000000000
40
0.0000000000
40
0.0000000000
40
0.0000000000
40
0.4635885550
40
1.0000000000
40
1.0000000000
40
1.0000000000
40
1.0000000000
10
84.8416432179
20
101.8428129218
30
0.0000000000
10
84.9006822277
20
101.8268468632
30
0.0000000000
10
85.0301661285
20
101.8001957432
30
0.0000000000
10
85.1623869723
20
101.7909161558
30
0.0000000000
10
85.2332496849
20
101.7909155631
30
0.0000000000
11
84.8416432179
21
101.8428129218
31
0.0000000000
11
85.0213249450
21
101.8058699464
31
0.0000000000
11
85.2332496849
21
101.7909155631
31
0.0000000000
0
SPLINE
5
3C0
100
AcDbEntity
8
0
100
AcDbSpline
62
7
6
CONTINUOUS
70
0
71
3
72
9
73
5
74
3
42
0.0000001000
43
0.0000001000
44
0.0000000001
40
0.0000000000
40
0.0000000000
40
0.0000000000
40
0.0000000000
40
0.9451373656
40
1.0000000000
40
1.0000000000
40
1.0000000000
40
1.0000000000
10
85.2332496841
20
123.4360960596
30
0.0000000000
10
85.1088711450
20
123.4360960596
30
0.0000000000
10
84.9766788389
20
123.4195531555
30
0.0000000000
10
84.8489869518
20
123.3860622051
30
0.0000000000
10
84.8419956516
20
123.3841740661
30
0.0000000000
11
85.2332496841
21
123.4360960596
31
0.0000000000
11
84.8630115243
21
123.3896859966
31
0.0000000000
11
84.8419956516
21
123.3841740661
31
0.0000000000
0
SPLINE
5
3C1
100
AcDbEntity
8
0
100
AcDbSpline
62
7
6
CONTINUOUS
70
0
71
3
72
8
73
4
74
2
42
0.0000001000
43
0.0000001000
44
0.0000000001
40
0.0000000000
40
0.0000000000
40
0.0000000000
40
0.0000000000
40
1.0000000000
40
1.0000000000
40
1.0000000000
40
1.0000000000
10
94.0544262929
20
123.7886525581
30
0.0000000000
10
94.0282047785
20
123.7845356890
30
0.0000000000
10
94.0019567989
20
123.7805027762
30
0.0000000000
10
93.9757193224
20
123.7765589323
30
0.0000000000
11
94.0544262929
21
123.7886525581
31
0.0000000000
11
93.9757193224
21
123.7765589323
31
0.0000000000
0
SPLINE
5
3C2
100
AcDbEntity
8
0
100
AcDbSpline
62
7
6
CONTINUOUS
70
0
71
3
72
8
73
4
74
2
42
0.0000001000
43
0.0000001000
44
0.0000000001
40
0.0000000000
40
0.0000000000
40
0.0000000000
40
0.0000000000
40
1.0000000000
40
1.0000000000
40
1.0000000000
40
1.0000000000
10
93.9757193224
20
123.7765589323
30
0.0000000000
10
93.9275922979
20
123.7693247964
30
0.0000000000
10
93.8795006120
20
123.7623903422
30
0.0000000000
10
93.8314066488
20
123.7556996916
30
0.0000000000
11
93.9757193224
21
123.7765589323
31
0.0000000000
11
93.8314066488
21
123.7556996916
31
0.0000000000
0
SPLINE
5
3C3
100
AcDbEntity
8
0
100
AcDbSpline
62
7
6
CONTINUOUS
70
0
71
3
72
8
73
4
74
2
42
0.0000001000
43
0.0000001000
44
0.0000000001
40
0.0000000000
40
0.0000000000
40
0.0000000000
40
0.0000000000
40
1.0000000000
40
1.0000000000
40
1.0000000000
40
1.0000000000
10
93.8314066488
20
123.7556996916
30
0.0000000000
10
93.7793451438
20
123.7484570916
30
0.0000000000
10
93.7272809702
20
123.7415001799
30
0.0000000000
10
93.6751664135
20
123.7347580771
30
0.0000000000
11
93.8314066488
21
123.7556996916
31
0.0000000000
11
93.6751664135
21
123.7347580771
31
0.0000000000
0
SPLINE
5
3C4
100
AcDbEntity
8
0
100
AcDbSpline
62
7
6
CONTINUOUS
70
0
71
3
72
17
73
13
74
11
42
0.0000001000
43
0.0000001000
44
0.0000000001
40
0.0000000000
40
0.0000000000
40
0.0000000000
40
0.0000000000
40
0.0601788777
40
0.1296384069
40
0.2095946171
40
0.3005994718
40
0.4022284338
40
0.5137743177
40
0.6341910943
40
0.7620831323
40
0.8958271057
40
1.0000000000
40
1.0000000000
40
1.0000000000
40
1.0000000000
10
93.6751664135
20
123.7347580771
30
0.0000000000
10
93.5585715222
20
123.7196741006
30
0.0000000000
10
93.3068574676
20
123.6894961661
30
0.0000000000
10
92.8993759162
20
123.6472863481
30
0.0000000000
10
92.4312390575
20
123.6057170651
30
0.0000000000
10
91.8999060568
20
123.5656738576
30
0.0000000000
10
91.3064651986
20
123.5286478308
30
0.0000000000
10
90.6552029597
20
123.4959230569
30
0.0000000000
10
89.9522978446
20
123.4689758241
30
0.0000000000
10
89.2057520189
20
123.4490259927
30
0.0000000000
10
88.4907740959
20
123.4382276024
30
0.0000000000
10
88.0257151699
20
123.4360890898
30
0.0000000000
10
87.8220883476
20
123.4360934138
30
0.0000000000
11
93.6751664135
21
123.7347580771
31
0.0000000000
11
93.3248081207
21
123.6925336692
31
0.0000000000
11
92.9196855414
21
123.6503200495
31
0.0000000000
11
92.4526760782
21
123.6085997815
31
0.0000000000
11
91.9205392236
21
123.5683168672
31
0.0000000000
11
91.3257487529
21
123.5309996477
31
0.0000000000
11
90.6724661970
21
123.4980385116
31
0.0000000000
11
89.9668563227
21
123.4708592091
31
0.0000000000
11
89.2171573147
21
123.4507505650
31
0.0000000000
11
88.4329620430
21
123.4388982616
31
0.0000000000
11
87.8220883476
21
123.4360934138
31
0.0000000000
0
SPLINE
5
3C5
100
AcDbEntity
8
0
100
AcDbSpline
62
7
6
CONTINUOUS
70
0
71
3
72
17
73
13
74
11
42
0.0000001000
43
0.0000001000
44
0.0000000001
40
0.0000000000
40
0.0000000000
40
0.0000000000
40
0.0000000000
40
0.1065771478
40
0.2399832038
40
0.3675688023
40
0.4877028016
40
0.5989827412
40
0.7003549122
40
0.7911066056
40
0.8708071839
40
0.9400289310
40
1.0000000000
40
1.0000000000
40
1.0000000000
40
1.0000000000
10
134.2155557204
20
123.4360935113
30
0.0000000000
10
134.0070827870
20
123.4360891313
30
0.0000000000
10
133.5376547002
20
123.4382990599
30
0.0000000000
10
132.8187338889
20
123.4493068861
30
0.0000000000
10
132.0734795535
20
123.4693645195
30
0.0000000000
10
131.3717565556
20
123.4963996459
30
0.0000000000
10
130.7216157732
20
123.5291877648
30
0.0000000000
10
130.1292792404
20
123.5662584479
30
0.0000000000
10
129.5990734220
20
123.6063203835
30
0.0000000000
10
129.1320704431
20
123.6478837443
30
0.0000000000
10
128.7256748306
20
123.6900694978
30
0.0000000000
10
128.4746573752
20
123.7202190899
30
0.0000000000
10
128.3583859339
20
123.7352886676
30
0.0000000000
11
134.2155557204
21
123.4360935113
31
0.0000000000
11
133.5901441512
21
123.4390336016
31
0.0000000000
11
132.8073823416
21
123.4510277366
31
0.0000000000
11
132.0589573354
21
123.4712469871
31
0.0000000000
11
131.3545142862
21
123.4985144905
31
0.0000000000
11
130.7023368400
21
123.5315415145
31
0.0000000000
11
130.1086389332
21
123.5689039293
31
0.0000000000
11
129.5776169081
21
123.6092070465
31
0.0000000000
11
129.1117814802
21
123.6509179784
31
0.0000000000
11
128.7077706967
21
123.6931030097
31
0.0000000000
11
128.3583859339
21
123.7352886676
31
0.0000000000
0
SPLINE
5
3C6
100
AcDbEntity
8
0
100
AcDbSpline
62
7
6
CONTINUOUS
70
0
71
3
72
8
73
4
74
2
42
0.0000001000
43
0.0000001000
44
0.0000000001
40
0.0000000000
40
0.0000000000
40
0.0000000000
40
0.0000000000
40
1.0000000000
40
1.0000000000
40
1.0000000000
40
1.0000000000
10
128.3583859339
20
123.7352886676
30
0.0000000000
10
128.2584178235
20
123.7482452216
30
0.0000000000
10
128.1586348170
20
123.7619958457
30
0.0000000000
10
128.0587040070
20
123.7770417115
30
0.0000000000
11
128.3583859339
21
123.7352886676
31
0.0000000000
11
128.0587040070
21
123.7770417115
31
0.0000000000
0
SPLINE
5
3C7
100
AcDbEntity
8
0
100
AcDbSpline
62
7
6
CONTINUOUS
70
0
71
3
72
8
73
4
74
2
42
0.0000001000
43
0.0000001000
44
0.0000000001
40
0.0000000000
40
0.0000000000
40
0.0000000000
40
0.0000000000
40
1.0000000000
40
1.0000000000
40
1.0000000000
40
1.0000000000
10
128.0587040070
20
123.7770417115
30
0.0000000000
10
128.0335382839
20
123.7808307341
30
0.0000000000
10
128.0083631872
20
123.7847018997
30
0.0000000000
10
127.9832111141
20
123.7886508656
30
0.0000000000
11
128.0587040070
21
123.7770417115
31
0.0000000000
11
127.9832111141
21
123.7886508656
31
0.0000000000
0
SPLINE
5
3C8
100
AcDbEntity
8
0
100
AcDbSpline
62
7
6
CONTINUOUS
70
0
71
3
72
9
73
5
74
3
42
0.0000001000
43
0.0000001000
44
0.0000000001
40
0.0000000000
40
0.0000000000
40
0.0000000000
40
0.0000000000
40
0.4635882832
40
1.0000000000
40
1.0000000000
40
1.0000000000
40
1.0000000000
10
137.1960005741
20
123.3841069758
30
0.0000000000
10
137.1369616267
20
123.4000730091
30
0.0000000000
10
137.0074777902
20
123.4267241068
30
0.0000000000
10
136.8752570133
20
123.4360036895
30
0.0000000000
10
136.8043943007
20
123.4360042822
30
0.0000000000
11
137.1960005741
21
123.3841069758
31
0.0000000000
11
137.0163190407
21
123.4210498989
31
0.0000000000
11
136.8043943007
21
123.4360042822
31
0.0000000000
0
SPLINE
5
3C9
100
AcDbEntity
8
0
100
AcDbSpline
62
7
6
CONTINUOUS
70
0
71
3
72
9
73
5
74
3
42
0.0000001000
43
0.0000001000
44
0.0000000001
40
0.0000000000
40
0.0000000000
40
0.0000000000
40
0.0000000000
40
0.9451375480
40
1.0000000000
40
1.0000000000
40
1.0000000000
40
1.0000000000
10
136.8043943015
20
101.7908237857
30
0.0000000000
10
136.9287728406
20
101.7908237857
30
0.0000000000
10
137.0609651212
20
101.8073666866
30
0.0000000000
10
137.1886569846
20
101.8408576272
30
0.0000000000
10
137.1956482602
20
101.8427457592
30
0.0000000000
11
136.8043943015
21
101.7908237857
31
0.0000000000
11
137.1746324614
21
101.8372338487
31
0.0000000000
11
137.1956482602
21
101.8427457592
31
0.0000000000
0
SPLINE
5
3CA
100
AcDbEntity
8
0
100
AcDbSpline
62
7
6
CONTINUOUS
70
0
71
3
72
8
73
4
74
2
42
0.0000001000
43
0.0000001000
44
0.0000000001
40
0.0000000000
40
0.0000000000
40
0.0000000000
40
0.0000000000
40
1.0000000000
40
1.0000000000
40
1.0000000000
40
1.0000000000
10
127.9832176927
20
101.4382672872
30
0.0000000000
10
128.0094392072
20
101.4423841563
30
0.0000000000
10
128.0356871868
20
101.4464170691
30
0.0000000000
10
128.0619246633
20
101.4503609130
30
0.0000000000
11
127.9832176927
21
101.4382672872
31
0.0000000000
11
128.0619246633
21
101.4503609130
31
0.0000000000
0
SPLINE
5
3CB
100
AcDbEntity
8
0
100
AcDbSpline
62
7
6
CONTINUOUS
70
0
71
3
72
8
73
4
74
2
42
0.0000001000
43
0.0000001000
44
0.0000000001
40
0.0000000000
40
0.0000000000
40
0.0000000000
40
0.0000000000
40
1.0000000000
40
1.0000000000
40
1.0000000000
40
1.0000000000
10
128.0619246633
20
101.4503609130
30
0.0000000000
10
128.1100516878
20
101.4575950489
30
0.0000000000
10
128.1581433736
20
101.4645295031
30
0.0000000000
10
128.2062373368
20
101.4712201536
30
0.0000000000
11
128.0619246633
21
101.4503609130
31
0.0000000000
11
128.2062373368
21
101.4712201536
31
0.0000000000
0
SPLINE
5
3CC
100
AcDbEntity
8
0
100
AcDbSpline
62
7
6
CONTINUOUS
70
0
71
3
72
8
73
4
74
2
42
0.0000001000
43
0.0000001000
44
0.0000000001
40
0.0000000000
40
0.0000000000
40
0.0000000000
40
0.0000000000
40
1.0000000000
40
1.0000000000
40
1.0000000000
40
1.0000000000
10
128.2062373368
20
101.4712201536
30
0.0000000000
10
128.2582988419
20
101.4784627537
30
0.0000000000
10
128.3103630155
20
101.4854196654
30
0.0000000000
10
128.3624775722
20
101.4921617682
30
0.0000000000
11
128.2062373368
21
101.4712201536
31
0.0000000000
11
128.3624775722
21
101.4921617682
31
0.0000000000
0
SPLINE
5
3CD
100
AcDbEntity
8
0
100
AcDbSpline
62
7
6
CONTINUOUS
70
0
71
3
72
17
73
13
74
11
42
0.0000001000
43
0.0000001000
44
0.0000000001
40
0.0000000000
40
0.0000000000
40
0.0000000000
40
0.0000000000
40
0.0601788777
40
0.1296384069
40
0.2095946171
40
0.3005994718
40
0.4022284338
40
0.5137743177
40
0.6341910943
40
0.7620831323
40
0.8958271057
40
1.0000000000
40
1.0000000000
40
1.0000000000
40
1.0000000000
10
128.3624775722
20
101.4921617682
30
0.0000000000
10
128.4790724634
20
101.5072457447
30
0.0000000000
10
128.7307865180
20
101.5374236792
30
0.0000000000
10
129.1382680694
20
101.5796334972
30
0.0000000000
10
129.6064049281
20
101.6212027802
30
0.0000000000
10
130.1377379289
20
101.6612459877
30
0.0000000000
10
130.7311787870
20
101.6982720145
30
0.0000000000
10
131.3824410259
20
101.7309967883
30
0.0000000000
10
132.0853461410
20
101.7579440212
30
0.0000000000
10
132.8318919667
20
101.7778938526
30
0.0000000000
10
133.5468698898
20
101.7886922429
30
0.0000000000
10
134.0119288157
20
101.7908307555
30
0.0000000000
10
134.2155556380
20
101.7908264315
30
0.0000000000
11
128.3624775722
21
101.4921617682
31
0.0000000000
11
128.7128358650
21
101.5343861761
31
0.0000000000
11
129.1179584442
21
101.5765997958
31
0.0000000000
11
129.5849679074
21
101.6183200638
31
0.0000000000
11
130.1171047620
21
101.6586029781
31
0.0000000000
11
130.7118952327
21
101.6959201976
31
0.0000000000
11
131.3651777886
21
101.7288813337
31
0.0000000000
11
132.0707876629
21
101.7560606362
31
0.0000000000
11
132.8204866709
21
101.7761692803
31
0.0000000000
11
133.6046819427
21
101.7880215837
31
0.0000000000
11
134.2155556380
21
101.7908264315
31
0.0000000000
0
SPLINE
5
3CE
100
AcDbEntity
8
0
100
AcDbSpline
62
7
6
CONTINUOUS
70
0
71
3
72
9
73
5
74
3
42
0.0000001000
43
0.0000001000
44
0.0000000001
40
0.0000000000
40
0.0000000000
40
0.0000000000
40
0.0000000000
40
0.9556822691
40
1.0000000000
40
1.0000000000
40
1.0000000000
40
1.0000000000
10
147.2656888894
20
120.6615579657
30
0.0000000000
10
147.2628028438
20
120.6623199605
30
0.0000000000
10
147.2597852307
20
120.6631258663
30
0.0000000000
10
147.2567700179
20
120.6639406679
30
0.0000000000
10
147.2566363952
20
120.6639767955
30
0.0000000000
11
147.2656888894
21
120.6615579657
31
0.0000000000
11
147.2570372774
21
120.6638684651
31
0.0000000000
11
147.2566363952
21
120.6639767955
31
0.0000000000
0
SPLINE
5
3CF
100
AcDbEntity
8
0
100
AcDbSpline
62
7
6
CONTINUOUS
70
0
71
3
72
17
73
13
74
11
42
0.0000001000
43
0.0000001000
44
0.0000000001
40
0.0000000000
40
0.0000000000
40
0.0000000000
40
0.0000000000
40
0.0392300723
40
0.1875254124
40
0.3306976526
40
0.4686489847
40
0.5965650645
40
0.7101988485
40
0.8053267129
40
0.8815826420
40
0.9533175880
40
1.0000000000
40
1.0000000000
40
1.0000000000
40
1.0000000000
10
148.5729648745
20
119.1347123655
30
0.0000000000
10
148.5729697592
20
119.1632352124
30
0.0000000000
10
148.5691300551
20
119.2995829938
30
0.0000000000
10
148.5296447464
20
119.5378738985
30
0.0000000000
10
148.4148844718
20
119.8297387669
30
0.0000000000
10
148.2519364261
20
120.0798921365
30
0.0000000000
10
148.0597103902
20
120.2789311675
30
0.0000000000
10
147.8618791942
20
120.4237170479
30
0.0000000000
10
147.6789617948
20
120.5210494692
30
0.0000000000
10
147.5152504522
20
120.5869838570
30
0.0000000000
10
147.3807565422
20
120.6300882167
30
0.0000000000
10
147.2980006762
20
120.6530357813
30
0.0000000000
10
147.2652695351
20
120.6616746888
30
0.0000000000
11
148.5729648745
21
119.1347123655
31
0.0000000000
11
148.5705513765
21
119.2202292660
31
0.0000000000
11
148.5178779652
21
119.5384797873
31
0.0000000000
11
148.4039283807
21
119.8283209029
31
0.0000000000
11
148.2401970267
21
120.0797956871
31
0.0000000000
11
148.0469840658
21
120.2800250522
31
0.0000000000
11
147.8476540681
21
120.4261984632
31
0.0000000000
11
147.6651814882
21
120.5237825500
31
0.0000000000
11
147.5115188939
21
120.5862538311
31
0.0000000000
11
147.3631017581
21
120.6344344918
31
0.0000000000
11
147.2652695351
21
120.6616746888
31
0.0000000000
0
SPLINE
5
3D0
100
AcDbEntity
8
0
100
AcDbSpline
62
7
6
CONTINUOUS
70
0
71
3
72
9
73
5
74
3
42
0.0000001000
43
0.0000001000
44
0.0000000001
40
0.0000000000
40
0.0000000000
40
0.0000000000
40
0.0000000000
40
0.9427055440
40
1.0000000000
40
1.0000000000
40
1.0000000000
40
1.0000000000
10
74.7811817823
20
120.6640239023
30
0.0000000000
10
74.7782993780
20
120.6632442341
30
0.0000000000
10
74.7752394618
20
120.6624257999
30
0.0000000000
10
74.7721771039
20
120.6616165883
30
0.0000000000
10
74.7720016397
20
120.6615702552
30
0.0000000000
11
74.7811817823
21
120.6640239023
31
0.0000000000
11
74.7725280081
21
120.6617093452
31
0.0000000000
11
74.7720016397
21
120.6615702552
31
0.0000000000
0
SPLINE
5
3D1
100
AcDbEntity
8
0
100
AcDbSpline
62
7
6
CONTINUOUS
70
0
71
3
72
17
73
13
74
11
42
0.0000001000
43
0.0000001000
44
0.0000000001
40
0.0000000000
40
0.0000000000
40
0.0000000000
40
0.0000000000
40
0.0496945246
40
0.1214131832
40
0.1977733783
40
0.2929983194
40
0.4064510616
40
0.5340280089
40
0.6714558854
40
0.8140161999
40
0.9616036577
40
1.0000000000
40
1.0000000000
40
1.0000000000
40
1.0000000000
10
74.7723658759
20
120.6616720823
30
0.0000000000
10
74.7375224629
20
120.6524764100
30
0.0000000000
10
74.6526893522
20
120.6288824895
30
0.0000000000
10
74.5161599538
20
120.5847512742
30
0.0000000000
10
74.3525506459
20
120.5181928067
30
0.0000000000
10
74.1700245480
20
120.4200857078
30
0.0000000000
10
73.9730746610
20
120.2746228062
30
0.0000000000
10
73.7821906324
20
120.0753574528
30
0.0000000000
10
73.6207054117
20
119.8255540367
30
0.0000000000
10
73.5072201404
20
119.5346548569
30
0.0000000000
10
73.4684019549
20
119.2978640751
30
0.0000000000
10
73.4646744890
20
119.1626412794
30
0.0000000000
10
73.4646791525
20
119.1347253113
30
0.0000000000
11
74.7723658759
21
120.6616720823
31
0.0000000000
11
74.6682484089
21
120.6325763313
31
0.0000000000
11
74.5199853601
21
120.5840356045
31
0.0000000000
11
74.3663267592
21
120.5209533394
31
0.0000000000
11
74.1840711935
21
120.4225178959
31
0.0000000000
11
73.9856913308
21
120.2757172457
31
0.0000000000
11
73.7938017221
21
120.0752378993
31
0.0000000000
11
73.6315622657
21
119.8241514147
31
0.0000000000
11
73.5188695185
21
119.5352464894
31
0.0000000000
11
73.4669912714
21
119.2184244951
31
0.0000000000
11
73.4646791525
21
119.1347253113
31
0.0000000000
0
SPLINE
5
3D2
100
AcDbEntity
8
0
100
AcDbSpline
62
7
6
CONTINUOUS
70
0
71
3
72
9
73
5
74
3
42
0.0000001000
43
0.0000001000
44
0.0000000001
40
0.0000000000
40
0.0000000000
40
0.0000000000
40
0.0000000000
40
0.9557593529
40
1.0000000000
40
1.0000000000
40
1.0000000000
40
1.0000000000
10
74.7719559409
20
104.5653616566
30
0.0000000000
10
74.7748419527
20
104.5645996690
30
0.0000000000
10
74.7778592869
20
104.5637938361
30
0.0000000000
10
74.7808742214
20
104.5629791090
30
0.0000000000
10
74.7810075994
20
104.5629430475
30
0.0000000000
11
74.7719559409
21
104.5653616566
31
0.0000000000
11
74.7806074514
21
104.5630511797
31
0.0000000000
11
74.7810075994
21
104.5629430475
31
0.0000000000
0
SPLINE
5
3D3
100
AcDbEntity
8
0
100
AcDbSpline
62
7
6
CONTINUOUS
70
0
71
3
72
17
73
13
74
11
42
0.0000001000
43
0.0000001000
44
0.0000000001
40
0.0000000000
40
0.0000000000
40
0.0000000000
40
0.0000000000
40
0.0392258856
40
0.1875230660
40
0.3306980006
40
0.4686539584
40
0.5965729046
40
0.7102045062
40
0.8053236528
40
0.8815788892
40
0.9533201058
40
1.0000000000
40
1.0000000000
40
1.0000000000
40
1.0000000000
10
73.4646797158
20
106.0921947243
30
0.0000000000
10
73.4646749277
20
106.0636749933
30
0.0000000000
10
73.4685146097
20
105.9273292777
30
0.0000000000
10
73.5079995256
20
105.6890385704
30
0.0000000000
10
73.6227631514
20
105.3971685249
30
0.0000000000
10
73.7857177070
20
105.1470111862
30
0.0000000000
10
73.9779496397
20
104.9479732852
30
0.0000000000
10
74.1757783518
20
104.8031950016
30
0.0000000000
10
74.3586884888
20
104.7058683813
30
0.0000000000
10
74.5223968116
20
104.6399337146
30
0.0000000000
10
74.6568928904
20
104.5968298626
30
0.0000000000
10
74.7396512608
20
104.5738819478
30
0.0000000000
10
74.7723805746
20
104.5652436048
30
0.0000000000
11
73.4646797158
21
106.0921947243
31
0.0000000000
11
73.4670929748
21
106.0066871630
31
0.0000000000
11
73.5197665592
21
105.6884334146
31
0.0000000000
11
73.6337191320
21
105.3985879968
31
0.0000000000
11
73.7974583444
21
105.1471072003
31
0.0000000000
11
73.9906787503
21
104.9468773031
31
0.0000000000
11
74.1900071149
21
104.8007107180
31
0.0000000000
11
74.3724632131
21
104.7031370998
31
0.0000000000
11
74.5261237831
21
104.6406659207
31
0.0000000000
11
74.6745537472
21
104.5924818398
31
0.0000000000
11
74.7723805746
21
104.5652436048
31
0.0000000000
0
SPLINE
5
3D4
100
AcDbEntity
8
0
100
AcDbSpline
62
7
6
CONTINUOUS
70
0
71
3
72
9
73
5
74
3
42
0.0000001000
43
0.0000001000
44
0.0000000001
40
0.0000000000
40
0.0000000000
40
0.0000000000
40
0.0000000000
40
0.9426836838
40
1.0000000000
40
1.0000000000
40
1.0000000000
40
1.0000000000
10
147.2564618951
20
104.5628958596
30
0.0000000000
10
147.2593443287
20
104.5636755363
30
0.0000000000
10
147.2624043469
20
104.5644939983
30
0.0000000000
10
147.2654668070
20
104.5653032372
30
0.0000000000
10
147.2656423439
20
104.5653495895
30
0.0000000000
11
147.2564618951
21
104.5628958596
31
0.0000000000
11
147.2651157571
21
104.5652104417
31
0.0000000000
11
147.2656423439
21
104.5653495895
31
0.0000000000
0
SPLINE
5
3D5
100
AcDbEntity
8
0
100
AcDbSpline
62
7
6
CONTINUOUS
70
0
71
3
72
17
73
13
74
11
42
0.0000001000
43
0.0000001000
44
0.0000000001
40
0.0000000000
40
0.0000000000
40
0.0000000000
40
0.0000000000
40
0.0496961887
40
0.1214123123
40
0.1977722889
40
0.2929999187
40
0.4064535170
40
0.5340297762
40
0.6714563921
40
0.8140159233
40
0.9616029268
40
1.0000000000
40
1.0000000000
40
1.0000000000
40
1.0000000000
10
147.2652822287
20
104.5652487162
30
0.0000000000
10
147.3001267756
20
104.5744447137
30
0.0000000000
10
147.3849591740
20
104.5980385886
30
0.0000000000
10
147.5214874541
20
104.6421702822
30
0.0000000000
10
147.6850966907
20
104.7087283860
30
0.0000000000
10
147.8676245599
20
104.8068370800
30
0.0000000000
10
148.0645750996
20
104.9523022937
30
0.0000000000
10
148.2554572166
20
105.1515680372
30
0.0000000000
10
148.4169402179
20
105.4013701701
30
0.0000000000
10
148.5304242157
20
105.6922675757
30
0.0000000000
10
148.5692423148
20
105.9290577817
30
0.0000000000
10
148.5729697623
20
106.0642806733
30
0.0000000000
10
148.5729650796
20
106.0921971506
30
0.0000000000
11
147.2652822287
21
104.5652487162
31
0.0000000000
11
147.3694030371
21
104.5943456373
31
0.0000000000
11
147.5176605500
21
104.6428851508
31
0.0000000000
11
147.6713186075
21
104.7059671385
31
0.0000000000
11
147.8535789400
21
104.8044057161
31
0.0000000000
11
148.0519592846
21
104.9512085145
31
0.0000000000
11
148.2438465233
21
105.1516877512
31
0.0000000000
11
148.4060833784
21
105.4027723678
31
0.0000000000
11
148.5187749212
21
105.6916756686
31
0.0000000000
11
148.5706529317
21
106.0084964407
31
0.0000000000
11
148.5729650796
21
106.0921971506
31
0.0000000000
0
ENDSEC
0
SECTION
2
OBJECTS
0
DICTIONARY
5
3D6
100
AcDbDictionary
3
ACAD_GROUP
350
3D7
3
ACAD_MLINESTYLE
350
3D8
0
DICTIONARY
5
3D7
102
{ACAD_REACTORS
330
3D6
102
}
100
AcDbDictionary
0
DICTIONARY
5
3D8
102
{ACAD_REACTORS
330
3D6
102
}
100
AcDbDictionary
3
STANDARD
350
3D9
0
MLINESTYLE
5
3D9
102
{ACAD_REACTORS
330
3D8
102
}
100
AcDbMlineStyle
2
STANDARD
70
0
3

62
256
51
90.0
52
90.0
71
2
49
0.5
62
256
6
BYLAYER
49
-0.5
62
256
6
BYLAYER
0
ENDSEC
0
EOF
