999
DXF file: C:\Aktuell-Internet\CAD-Daten\2rm-m16.dxf
999
Pro/ENGINEER 2001400 by Parametric Technology Corporation
0
SECTION
2
HEADER
9
$ACADVER
1
AC1014
9
$EXTMAX
10
420.0000000000
20
297.0000000000
9
$EXTMIN
10
0.0000000000
20
0.0000000000
9
$LIMMIN
10
0.0000000000
20
0.0000000000
9
$LIMMAX
10
420.0000000000
20
297.0000000000
9
$VIEWCTR
10
210.0000000000
20
148.5000000000
9
$VIEWSIZE
40
297.0000000000
9
$CLAYER
8
0
9
$LTSCALE
40
23.1000000000
9
$CELTYPE
6
BYLAYER
9
$DIMSCALE
40
1
9
$DIMASZ
40
3.5000000000
9
$DIMEXO
40
2.6250000000
9
$DIMDLI
40
15.9600000000
9
$DIMEXE
40
7.5600000000
9
$DIMCEN
40
3.7800000000
9
$DIMLFAC
40
1.0000000000
9
$DIMTXT
40
3.5000000000
9
$DIMTOL
70
1
9
$DIMTFAC
40
0.6000000000
9
$DIMTP
40
0.0050000000
9
$DIMTM
40
0.0050000000
9
$HANDSEED
5
462
0
ENDSEC
0
SECTION
2
CLASSES
0
ENDSEC
0
SECTION
2
TABLES
0
TABLE
2
VPORT
5
8
100
AcDbSymbolTable
70
2
0
VPORT
5
1F4
100
AcDbSymbolTableRecord
100
AcDbViewportTableRecord
2
*ACTIVE
70
0
10
0.0
20
0.0
11
1.0
21
1.0
12
210.0000000000
22
148.5000000000
13
0.0
23
0.0
14
1.0
24
1.0
15
0.0
25
0.0
16
0.0
26
0.0
36
1.0
17
0.0
27
0.0
37
0.0
40
297.0000000000
41
1.4141414141
42
50.0
43
0.0
44
0.0
50
0.0
51
0.0
71
0
72
100
73
1
74
1
75
0
76
0
77
0
78
0
0
ENDTAB
0
TABLE
2
LTYPE
5
5
100
AcDbSymbolTable
70
6
0
LTYPE
5
14
100
AcDbSymbolTableRecord
100
AcDbLinetypeTableRecord
2
BYBLOCK
70
0
3

72
65
73
0
40
0.0
0
LTYPE
5
15
100
AcDbSymbolTableRecord
100
AcDbLinetypeTableRecord
2
BYLAYER
70
0
3

72
65
73
0
40
0.0
0
LTYPE
5
16
100
AcDbSymbolTableRecord
100
AcDbLinetypeTableRecord
2
CONTINUOUS
70
64
3
Solid line
72
65
73
0
40
0
0
LTYPE
5
1F5
100
AcDbSymbolTableRecord
100
AcDbLinetypeTableRecord
2
CENTER
70
64
3
____ _ ____ _ ____ _ ____ _ ____ _ ____ _ ____
72
65
73
4
40
0.6
49
0.375
74
0
49
-0.075
74
0
49
0.075
74
0
49
-0.075
74
0
0
LTYPE
5
1F6
100
AcDbSymbolTableRecord
100
AcDbLinetypeTableRecord
2
HIDDEN
70
64
3
- - - - - - - - - - - - - - - - - - - -
72
65
73
2
40
0.2
49
0.1
74
0
49
-0.1
74
0
0
LTYPE
5
1F7
100
AcDbSymbolTableRecord
100
AcDbLinetypeTableRecord
2
PHANTOM
70
64
3
_____ _ _ _____ _ _ _____ _ _ _____
72
65
73
6
40
0.8
49
0.45
74
0
49
-0.05
74
0
49
0.1
74
0
49
-0.05
74
0
49
0.1
74
0
49
-0.05
74
0
0
LTYPE
5
1F8
100
AcDbSymbolTableRecord
100
AcDbLinetypeTableRecord
2
DOT
70
64
3
. . . . . . . . . . . . . . . . . . . .
72
65
73
2
40
0.2
49
0.1
74
0
49
-0.1
74
0
0
LTYPE
5
1F9
100
AcDbSymbolTableRecord
100
AcDbLinetypeTableRecord
2
DASHED
70
64
3
- - - - - - - - - - - - - - - - - - - -
72
65
73
2
40
0.2
49
0.1
74
0
49
-0.1
74
0
0
ENDTAB
0
TABLE
2
LAYER
5
2
100
AcDbSymbolTable
70
36
0
LAYER
5
10
100
AcDbSymbolTableRecord
100
AcDbLayerTableRecord
2
0
70
0
62
7
6
CONTINUOUS
0
LAYER
5
1FA
100
AcDbSymbolTableRecord
100
AcDbLayerTableRecord
2
DEFAULT_1
70
0
62
7
6
CENTER
0
LAYER
5
1FB
100
AcDbSymbolTableRecord
100
AcDbLayerTableRecord
2
DEFAULT_2
70
0
62
8
6
HIDDEN
0
LAYER
5
1FC
100
AcDbSymbolTableRecord
100
AcDbLayerTableRecord
2
DEFAULT_3
70
0
62
7
6
PHANTOM
0
ENDTAB
0
TABLE
2
STYLE
5
3
100
AcDbSymbolTable
70
1
0
STYLE
5
11
100
AcDbSymbolTableRecord
100
AcDbTextStyleTableRecord
2
STANDARD
70
0
40
0.0
41
1.0
50
0.0
71
0
42
0.0
3
txt
4

0
STYLE
5
1FD
100
AcDbSymbolTableRecord
100
AcDbTextStyleTableRecord
2
TEXTSTYLE_0
70
0
40
0.0
41
0.80
50
0.0
71
0
42
0.2
3
txt
4

0
ENDTAB
0
TABLE
2
VIEW
5
6
100
AcDbSymbolTable
70
0
0
ENDTAB
0
TABLE
2
UCS
5
7
100
AcDbSymbolTable
70
0
0
ENDTAB
0
TABLE
2
APPID
5
9
100
AcDbSymbolTable
70
1
0
APPID
5
1FE
100
AcDbSymbolTableRecord
100
AcDbRegAppTableRecord
2
ACAD
70
0
0
ENDTAB
0
TABLE
2
DIMSTYLE
5
A
100
AcDbSymbolTable
70
1
0
DIMSTYLE
105
1FF
100
AcDbSymbolTableRecord
100
AcDbDimStyleTableRecord
2
STANDARD
70
0
3

4

5

6

7

40
1.0
41
0.18
42
0.0625
43
0.38
44
0.18
45
0.0
46
0.0
47
0.0050000000
48
0.0050000000
140
3.5000000000
141
0.09
142
0.0
143
25.4
144
1.0000000000
145
0.0
146
0.6000000000
147
0.09
71
1
72
0
73
1
74
1
75
0
76
0
77
0
78
0
170
0
171
2
172
0
173
0
174
0
175
0
176
0
177
0
178
0
270
2
271
3
272
4
273
2
274
2
340
11
275
0
280
0
281
0
282
0
283
1
284
0
285
0
286
0
287
3
288
0
0
ENDTAB
0
TABLE
2
BLOCK_RECORD
5
1
100
AcDbSymbolTable
70
0
0
BLOCK_RECORD
5
1B
100
AcDbSymbolTableRecord
100
AcDbBlockTableRecord
2
*MODEL_SPACE
0
BLOCK_RECORD
5
1C
100
AcDbSymbolTableRecord
100
AcDbBlockTableRecord
2
*PAPER_SPACE
0
ENDTAB
0
ENDSEC
0
SECTION
2
BLOCKS
0
BLOCK
5
1E
100
AcDbEntity
8
0
100
AcDbBlockBegin
2
*MODEL_SPACE
70
0
10
0.0
20
0.0
30
0.0
3
*MODEL_SPACE
1

0
ENDBLK
5
1F
100
AcDbEntity
8
0
100
AcDbBlockEnd
0
BLOCK
5
20
100
AcDbEntity
8
0
100
AcDbBlockBegin
2
*PAPER_SPACE
70
0
10
0.0
20
0.0
30
0.0
3
*PAPER_SPACE
1

0
ENDBLK
5
21
100
AcDbEntity
8
0
100
AcDbBlockEnd
0
ENDSEC
0
SECTION
2
ENTITIES
0
TEXT
5
200
100
AcDbEntity
8
0
100
AcDbText
62
2
6
CONTINUOUS
10
86.3814309908
20
114.1339352251
7
TEXTSTYLE_0
40
3.5000000000
1
RUD
72
5
11
95.0480976575
21
114.1339352251
100
AcDbText
0
TEXT
5
201
100
AcDbEntity
8
0
100
AcDbText
62
2
6
CONTINUOUS
10
85.5110646994
20
107.4321147813
7
TEXTSTYLE_0
40
3.5000000000
1
RM M16
72
5
11
101.7610646994
21
107.4321147813
100
AcDbText
0
TEXT
5
202
100
AcDbEntity
8
0
100
AcDbText
62
2
6
CONTINUOUS
10
293.1365078417
20
195.3403666236
7
TEXTSTYLE_0
40
3.5000000000
1
RUD
50
90.0000000000
72
5
11
293.1365078417
21
204.0070332902
100
AcDbText
0
TEXT
5
203
100
AcDbEntity
8
0
100
AcDbText
62
2
6
CONTINUOUS
10
300.7629990401
20
195.7417608972
7
TEXTSTYLE_0
40
3.5000000000
1
RM M16
50
90.0000000000
72
5
11
300.7629990401
21
211.9917608972
100
AcDbText
0
LINE
5
204
100
AcDbEntity
8
0
100
AcDbLine
62
7
6
CONTINUOUS
10
0.0000000000
20
0.0000000000
11
0.0000000000
21
297.0000000000
0
LINE
5
205
100
AcDbEntity
8
0
100
AcDbLine
62
7
6
CONTINUOUS
10
0.0000000000
20
0.0000000000
11
420.0000000000
21
0.0000000000
0
LINE
5
206
100
AcDbEntity
8
0
100
AcDbLine
62
7
6
CONTINUOUS
10
0.0000000000
20
297.0000000000
11
420.0000000000
21
297.0000000000
0
LINE
5
207
100
AcDbEntity
8
0
100
AcDbLine
62
7
6
CONTINUOUS
10
420.0000000000
20
0.0000000000
11
420.0000000000
21
297.0000000000
0
LINE
5
208
100
AcDbEntity
8
0
100
AcDbLine
62
7
6
CONTINUOUS
10
94.0188218795
20
181.9102559507
11
93.5188218795
21
182.4102559507
0
LINE
5
209
100
AcDbEntity
8
0
100
AcDbLine
62
7
6
CONTINUOUS
10
78.6399104417
20
212.9409896801
11
87.0410818341
21
233.2232115955
0
LINE
5
20A
100
AcDbEntity
8
0
100
AcDbLine
62
7
6
CONTINUOUS
10
94.0188218795
20
181.9102559507
11
128.0188218795
21
181.9102559507
0
LINE
5
20B
100
AcDbEntity
8
0
100
AcDbLine
62
7
6
CONTINUOUS
10
93.5188218795
20
182.4102559507
11
128.5188218795
21
182.4102559507
0
LINE
5
20C
100
AcDbEntity
8
0
100
AcDbLine
62
7
6
CONTINUOUS
10
87.2915811633
20
188.9925414278
11
78.6399104417
21
209.8795222212
0
LINE
5
20D
100
AcDbEntity
8
0
100
AcDbLine
62
7
6
CONTINUOUS
10
84.6037427627
20
221.5588221967
11
84.4279138290
21
221.1445947110
0
LINE
5
20E
100
AcDbEntity
8
0
100
AcDbLine
62
7
6
CONTINUOUS
10
86.6355458938
20
226.3454471051
11
86.4597169601
21
225.9312205732
0
LINE
5
20F
100
AcDbEntity
8
0
100
AcDbLine
62
7
6
CONTINUOUS
10
85.8736192428
20
224.5504632413
11
85.6977903091
21
224.1362357557
0
LINE
5
210
100
AcDbEntity
8
0
100
AcDbLine
62
7
6
CONTINUOUS
10
83.8418180190
20
219.7638373792
11
83.6659890853
21
219.3496103704
0
LINE
5
211
100
AcDbEntity
8
0
100
AcDbLine
62
7
6
CONTINUOUS
10
83.2361852371
20
218.3370552480
11
82.7673074447
21
217.2324495732
0
LINE
5
212
100
AcDbEntity
8
0
100
AcDbLine
62
7
6
CONTINUOUS
10
87.5732995712
20
228.5546594083
11
87.4951535903
21
228.3705583036
0
LINE
5
213
100
AcDbEntity
8
0
100
AcDbLine
62
7
6
CONTINUOUS
10
87.0262757980
20
227.2659526288
11
86.9090577804
21
226.9898009717
0
LINE
5
214
100
AcDbEntity
8
0
100
AcDbLine
62
7
6
CONTINUOUS
10
83.1783048354
20
217.3838992536
11
83.5494996749
21
218.2583790242
0
LINE
5
215
100
AcDbEntity
8
0
100
AcDbLine
62
7
6
CONTINUOUS
10
87.7693959914
20
228.1998315274
11
87.8866140090
21
228.4759831845
0
LINE
5
216
100
AcDbEntity
8
0
100
AcDbLine
62
7
6
CONTINUOUS
10
88.3954412185
20
228.6945424497
11
88.4931241714
21
228.9246697843
0
LINE
5
217
100
AcDbEntity
8
0
100
AcDbLine
62
7
6
CONTINUOUS
10
88.7481214248
20
228.3818860471
11
88.5916825973
21
228.1766992032
0
LINE
5
218
100
AcDbEntity
8
0
100
AcDbLine
62
7
6
CONTINUOUS
10
87.7297383987
20
228.7598443448
11
87.5732995712
21
228.5546594083
0
LINE
5
219
100
AcDbEntity
8
0
100
AcDbLine
62
7
6
CONTINUOUS
10
94.3084432327
20
234.3643975675
11
94.4732820235
21
234.5455556333
0
LINE
5
21A
100
AcDbEntity
8
0
100
AcDbLine
62
7
6
CONTINUOUS
10
94.2871114455
20
234.8680119931
11
94.0717546188
21
234.6576867521
0
LINE
5
21B
100
AcDbEntity
8
0
100
AcDbLine
62
7
6
CONTINUOUS
10
87.8866140090
20
228.4759831845
11
88.0039807998
21
228.5891175687
0
LINE
5
21C
100
AcDbEntity
8
0
100
AcDbLine
62
7
6
CONTINUOUS
10
96.6109468185
20
236.2096772611
11
96.3450719558
21
235.9701867521
0
LINE
5
21D
100
AcDbEntity
8
0
100
AcDbLine
62
7
6
CONTINUOUS
10
100.3998080932
20
238.3971772611
11
100.1472179137
21
238.2513451993
0
LINE
5
21E
100
AcDbEntity
8
0
100
AcDbLine
62
7
6
CONTINUOUS
10
94.4891854964
20
234.9846787870
11
94.2871114455
21
234.8680119931
0
LINE
5
21F
100
AcDbEntity
8
0
100
AcDbLine
62
7
6
CONTINUOUS
10
94.4732820235
20
234.5455556333
11
94.6753541671
21
234.6622224271
0
LINE
5
220
100
AcDbEntity
8
0
100
AcDbLine
62
7
6
CONTINUOUS
10
89.2058662347
20
235.3879959961
11
109.4880881500
21
243.7891673885
0
LINE
5
221
100
AcDbEntity
8
0
100
AcDbLine
62
7
6
CONTINUOUS
10
99.1740886413
20
237.6035199582
11
98.8337451659
21
237.4930119931
0
LINE
5
222
100
AcDbEntity
8
DEFAULT_2
100
AcDbLine
62
8
6
HIDDEN
10
103.0188218795
20
183.4102559507
11
119.0188218795
21
183.4102559507
0
LINE
5
223
100
AcDbEntity
8
0
100
AcDbLine
62
7
6
CONTINUOUS
10
84.4306871139
20
218.0472908437
11
84.4308339797
21
217.8842745244
0
LINE
5
224
100
AcDbEntity
8
0
100
AcDbLine
62
7
6
CONTINUOUS
10
87.4951535903
20
228.3705583036
11
87.4562265121
21
228.1154923856
0
LINE
5
225
100
AcDbEntity
8
0
100
AcDbLine
62
7
6
CONTINUOUS
10
88.4939996444
20
227.9465737760
11
88.4550725662
21
227.6915059507
0
LINE
5
226
100
AcDbEntity
8
0
100
AcDbLine
62
7
6
CONTINUOUS
10
94.0717546188
20
234.6576867521
11
93.9308664047
21
234.3183789670
0
LINE
5
227
100
AcDbEntity
8
0
100
AcDbLine
62
7
6
CONTINUOUS
10
88.5916825973
20
228.1766992032
11
88.4939996444
21
227.9465737760
0
LINE
5
228
100
AcDbEntity
8
0
100
AcDbLine
62
7
6
CONTINUOUS
10
84.4308339797
20
217.8842745244
11
84.0596391402
21
217.0097952306
0
LINE
5
229
100
AcDbEntity
8
0
100
AcDbLine
62
7
6
CONTINUOUS
10
88.7682420455
20
227.7758469999
11
88.9049970351
21
228.0980229795
0
LINE
5
22A
100
AcDbEntity
8
0
100
AcDbLine
62
7
6
CONTINUOUS
10
84.4121724807
20
216.8601532399
11
84.7442952834
21
217.6425824582
0
LINE
5
22B
100
AcDbEntity
8
0
100
AcDbLine
62
7
6
CONTINUOUS
10
90.0801088058
20
227.5992169797
11
89.9433538162
21
227.2770410001
0
LINE
5
22C
100
AcDbEntity
8
0
100
AcDbLine
62
7
6
CONTINUOUS
10
87.2480394088
20
220.1104770124
11
87.3652574264
21
220.3866286695
0
LINE
5
22D
100
AcDbEntity
8
0
100
AcDbLine
62
7
6
CONTINUOUS
10
90.2566682540
20
227.1983647763
11
90.3543512069
21
227.4284902036
0
LINE
5
22E
100
AcDbEntity
8
0
100
AcDbLine
62
7
6
CONTINUOUS
10
89.2798406326
20
224.8971028745
11
89.3970605575
21
225.1732535779
0
LINE
5
22F
100
AcDbEntity
8
0
100
AcDbLine
62
7
6
CONTINUOUS
10
88.4593049728
20
222.9640422284
11
88.5765248977
21
223.2401938855
0
LINE
5
230
100
AcDbEntity
8
0
100
AcDbLine
62
7
6
CONTINUOUS
10
88.8500367843
20
223.8845467984
11
89.0063287460
21
224.2527490079
0
LINE
5
231
100
AcDbEntity
8
0
100
AcDbLine
62
7
6
CONTINUOUS
10
86.4275037490
20
218.1774173200
11
86.5447236739
21
218.4535685002
0
LINE
5
232
100
AcDbEntity
8
0
100
AcDbLine
62
7
6
CONTINUOUS
10
86.8182336532
20
219.0979218900
11
86.9745275222
21
219.4661240995
0
LINE
5
233
100
AcDbEntity
8
0
100
AcDbLine
62
7
6
CONTINUOUS
10
85.5288221084
20
216.0602560460
11
85.6460420333
21
216.3364072263
0
LINE
5
234
100
AcDbEntity
8
0
100
AcDbLine
62
7
6
CONTINUOUS
10
86.1344548904
20
217.4870386541
11
86.2712117873
21
217.8092151105
0
LINE
5
235
100
AcDbEntity
8
0
100
AcDbLine
62
7
6
CONTINUOUS
10
89.6705724441
20
225.8176074445
11
89.7877904617
21
226.0937591016
0
LINE
5
236
100
AcDbEntity
8
0
100
AcDbLine
62
7
6
CONTINUOUS
10
94.7393495284
20
233.1513791501
11
94.6755487167
21
233.0285554349
0
LINE
5
237
100
AcDbEntity
8
0
100
AcDbLine
62
7
6
CONTINUOUS
10
83.3926221572
20
218.5422411382
11
83.2361852371
21
218.3370552480
0
LINE
5
238
100
AcDbEntity
8
0
100
AcDbLine
62
7
6
CONTINUOUS
10
90.1002294265
20
226.9931788861
11
90.2566682540
21
227.1983647763
0
LINE
5
239
100
AcDbEntity
8
0
100
AcDbLine
62
7
6
CONTINUOUS
10
95.4359380447
20
233.8115201413
11
95.2711002074
21
233.6303620755
0
LINE
5
23A
100
AcDbEntity
8
0
100
AcDbLine
62
7
6
CONTINUOUS
10
95.0531245910
20
233.0745721280
11
95.2179633819
21
233.2557301938
0
LINE
5
23B
100
AcDbEntity
8
0
100
AcDbLine
62
7
6
CONTINUOUS
10
96.2178527557
20
232.4572034299
11
96.0530149184
21
232.2760453641
0
LINE
5
23C
100
AcDbEntity
8
0
100
AcDbLine
62
7
6
CONTINUOUS
10
96.5817605697
20
235.6768975675
11
96.7971173965
21
235.8872228086
0
LINE
5
23D
100
AcDbEntity
8
0
100
AcDbLine
62
7
6
CONTINUOUS
10
98.8045589172
20
236.9602303922
11
99.0199157439
21
237.1705556333
0
LINE
5
23E
100
AcDbEntity
8
0
100
AcDbLine
62
7
6
CONTINUOUS
10
96.2897025787
20
231.9827561795
11
96.5050594054
21
232.1930814206
0
LINE
5
23F
100
AcDbEntity
8
0
100
AcDbLine
62
7
6
CONTINUOUS
10
88.9049970351
20
228.0980229795
11
89.0223619186
21
228.2111592710
0
LINE
5
240
100
AcDbEntity
8
0
100
AcDbLine
62
7
6
CONTINUOUS
10
89.9433538162
20
227.2770410001
11
89.8259889327
21
227.1639056623
0
LINE
5
241
100
AcDbEntity
8
0
100
AcDbLine
62
7
6
CONTINUOUS
10
98.8337451659
20
237.4930119931
11
98.5678703033
21
237.2535195768
0
LINE
5
242
100
AcDbEntity
8
0
100
AcDbLine
62
7
6
CONTINUOUS
10
104.1409622871
20
239.2673097074
11
103.8883716308
21
239.1214757383
0
LINE
5
243
100
AcDbEntity
8
0
100
AcDbLine
62
7
6
CONTINUOUS
10
103.4337083541
20
238.8589768827
11
103.1305991851
21
238.6839757383
0
LINE
5
244
100
AcDbEntity
8
0
100
AcDbLine
62
7
6
CONTINUOUS
10
101.9181634628
20
237.9839768827
11
101.6150552474
21
237.8089757383
0
LINE
5
245
100
AcDbEntity
8
0
100
AcDbLine
62
7
6
CONTINUOUS
10
103.3167692863
20
238.3615193784
11
103.6198784553
21
238.5365205228
0
LINE
5
246
100
AcDbEntity
8
0
100
AcDbLine
62
7
6
CONTINUOUS
10
95.2711002074
20
233.6303620755
11
95.0690271102
21
233.5136952817
0
LINE
5
247
100
AcDbEntity
8
0
100
AcDbLine
62
7
6
CONTINUOUS
10
95.2179633819
20
233.2557301938
11
95.4200355254
21
233.3723969876
0
LINE
5
248
100
AcDbEntity
8
0
100
AcDbLine
62
7
6
CONTINUOUS
10
104.4390274726
20
237.1177125394
11
104.2369548522
21
237.0010457456
0
LINE
5
249
100
AcDbEntity
8
0
100
AcDbLine
62
7
6
CONTINUOUS
10
96.0530149184
20
232.2760453641
11
95.8509418212
21
232.1593785703
0
LINE
5
24A
100
AcDbEntity
8
0
100
AcDbLine
62
7
6
CONTINUOUS
10
95.9865943633
20
231.8077550351
11
96.2897025787
21
231.9827561795
0
LINE
5
24B
100
AcDbEntity
8
0
100
AcDbLine
62
7
6
CONTINUOUS
10
101.8972179137
20
235.2202554166
11
102.1498080932
21
235.3660893857
0
LINE
5
24C
100
AcDbEntity
8
0
100
AcDbLine
62
7
6
CONTINUOUS
10
103.0086166106
20
235.8619218290
11
103.3117257797
21
236.0369229734
0
LINE
5
24D
100
AcDbEntity
8
0
100
AcDbLine
62
7
6
CONTINUOUS
10
104.3220884048
20
236.6202550351
11
104.6251975738
21
236.7952561795
0
LINE
5
24E
100
AcDbEntity
8
0
100
AcDbLine
62
7
6
CONTINUOUS
10
88.0036889755
20
228.9151502073
11
87.7297383987
21
228.7598443448
0
LINE
5
24F
100
AcDbEntity
8
0
100
AcDbLine
62
7
6
CONTINUOUS
10
89.0220700942
20
228.5371900022
11
88.7481214248
21
228.3818860471
0
LINE
5
250
100
AcDbEntity
8
0
100
AcDbLine
62
7
6
CONTINUOUS
10
88.0039807998
20
228.5891175687
11
88.1801015579
21
228.6773133695
0
LINE
5
251
100
AcDbEntity
8
0
100
AcDbLine
62
7
6
CONTINUOUS
10
108.9921552383
20
238.8653626859
11
108.8171552860
21
238.7908940732
0
LINE
5
252
100
AcDbEntity
8
0
100
AcDbLine
62
7
6
CONTINUOUS
10
96.9512902938
20
236.3201871335
11
96.6109468185
21
236.2096772611
0
LINE
5
253
100
AcDbEntity
8
0
100
AcDbLine
62
7
6
CONTINUOUS
10
133.3602432969
20
188.0665665764
11
132.2789297348
21
188.0665665764
0
LINE
5
254
100
AcDbEntity
8
0
100
AcDbLine
62
7
6
CONTINUOUS
10
89.7587140242
20
188.0665665764
11
88.6774004621
21
188.0665665764
0
LINE
5
255
100
AcDbEntity
8
0
100
AcDbLine
62
7
6
CONTINUOUS
10
84.7440034591
20
217.9686146199
11
84.7046376907
21
218.2025962293
0
LINE
5
256
100
AcDbEntity
8
0
100
AcDbLine
62
7
6
CONTINUOUS
10
87.7695409499
20
228.0368161618
11
87.7693959914
21
228.1998315274
0
LINE
5
257
100
AcDbEntity
8
0
100
AcDbLine
62
7
6
CONTINUOUS
10
88.7683870040
20
227.6128297269
11
88.7682420455
21
227.7758469999
0
LINE
5
258
100
AcDbEntity
8
0
100
AcDbLine
62
7
6
CONTINUOUS
10
90.0799638473
20
227.7622342527
11
90.0801088058
21
227.5992169797
0
LINE
5
259
100
AcDbEntity
8
0
100
AcDbLine
62
7
6
CONTINUOUS
10
90.3543512069
20
227.4284902036
11
90.3932782851
21
227.6835580289
0
LINE
5
25A
100
AcDbEntity
8
0
100
AcDbLine
62
7
6
CONTINUOUS
10
94.2180730544
20
234.0542569577
11
94.3084432327
21
234.3643975675
0
LINE
5
25B
100
AcDbEntity
8
0
100
AcDbLine
62
7
6
CONTINUOUS
10
94.6755487167
20
233.0285554349
11
94.5851766311
21
232.7184148252
0
LINE
5
25C
100
AcDbEntity
8
0
100
AcDbLine
62
7
6
CONTINUOUS
10
95.5263091766
20
234.1216607511
11
95.4359380447
21
233.8115201413
0
LINE
5
25D
100
AcDbEntity
8
0
100
AcDbLine
62
7
6
CONTINUOUS
10
96.5046741210
20
235.4604154050
11
96.5817605697
21
235.6768975675
0
LINE
5
25E
100
AcDbEntity
8
0
100
AcDbLine
62
7
6
CONTINUOUS
10
96.3450719558
20
235.9701867521
11
96.2041837417
21
235.6308789670
0
LINE
5
25F
100
AcDbEntity
8
0
100
AcDbLine
62
7
6
CONTINUOUS
10
98.5678703033
20
237.2535195768
11
98.4269820892
21
236.9142136991
0
LINE
5
260
100
AcDbEntity
8
0
100
AcDbLine
62
7
6
CONTINUOUS
10
96.5050594054
20
232.1930814206
11
96.6459485732
21
232.5323872983
0
LINE
5
261
100
AcDbEntity
8
0
100
AcDbLine
62
7
6
CONTINUOUS
10
94.9255201064
20
232.8289227903
11
95.0531245910
21
233.0745721280
0
LINE
5
262
100
AcDbEntity
8
0
100
AcDbLine
62
7
6
CONTINUOUS
10
95.7497131072
20
233.7347131192
11
95.8135148727
21
233.8575368344
0
LINE
5
263
100
AcDbEntity
8
0
100
AcDbLine
62
7
6
CONTINUOUS
10
96.3454572402
20
232.7028527677
11
96.2178527557
21
232.4572034299
0
LINE
5
264
100
AcDbEntity
8
0
100
AcDbLine
62
7
6
CONTINUOUS
10
103.1305991851
20
238.6839757383
11
102.9657603942
21
238.5028176725
0
LINE
5
265
100
AcDbEntity
8
0
100
AcDbLine
62
7
6
CONTINUOUS
10
104.6038657867
20
237.2988706052
11
104.4390274726
21
237.1177125394
0
LINE
5
266
100
AcDbEntity
8
0
100
AcDbLine
62
7
6
CONTINUOUS
10
104.6251975738
20
236.7952561795
11
104.7900358878
21
236.9764142453
0
LINE
5
267
100
AcDbEntity
8
0
100
AcDbLine
62
7
6
CONTINUOUS
10
98.3901340209
20
233.7113709867
11
98.1747771941
21
233.5010457456
0
LINE
5
268
100
AcDbEntity
8
0
100
AcDbLine
62
7
6
CONTINUOUS
10
100.6129323684
20
234.9947038114
11
100.3975755416
21
234.7843785703
0
LINE
5
269
100
AcDbEntity
8
0
100
AcDbLine
62
7
6
CONTINUOUS
10
83.5494996749
20
218.2583790242
11
83.6668645583
21
218.3715143621
0
LINE
5
26A
100
AcDbEntity
8
0
100
AcDbLine
62
7
6
CONTINUOUS
10
98.3609468185
20
233.1785893857
11
98.6268216811
21
233.4180798948
0
LINE
5
26B
100
AcDbEntity
8
0
100
AcDbLine
62
7
6
CONTINUOUS
10
100.5837451659
20
234.4619222104
11
100.8496200286
21
234.7014146268
0
LINE
5
26C
100
AcDbEntity
8
0
100
AcDbLine
62
7
6
CONTINUOUS
10
109.0504885160
20
238.4930215299
11
109.2838218652
21
238.6419587552
0
LINE
5
26D
100
AcDbEntity
8
0
100
AcDbLine
62
7
6
CONTINUOUS
10
104.1173979484
20
236.1581235349
11
103.8648068153
21
236.0122914731
0
LINE
5
26E
100
AcDbEntity
8
0
100
AcDbLine
62
7
6
CONTINUOUS
10
105.0720059119
20
236.0213609159
11
104.7688972198
21
235.8463616788
0
LINE
5
26F
100
AcDbEntity
8
0
100
AcDbLine
62
7
6
CONTINUOUS
10
104.9178334914
20
235.5883965909
11
105.2209421836
21
235.7633958280
0
LINE
5
270
100
AcDbEntity
8
0
100
AcDbLine
62
7
6
CONTINUOUS
10
89.8262807571
20
226.8378730237
11
90.1002294265
21
226.9931788861
0
LINE
5
271
100
AcDbEntity
8
0
100
AcDbLine
62
7
6
CONTINUOUS
10
89.0223619186
20
228.2111592710
11
89.1984826766
21
228.2993531644
0
LINE
5
272
100
AcDbEntity
8
0
100
AcDbLine
62
7
6
CONTINUOUS
10
89.8259889327
20
227.1639056623
11
89.6498681747
21
227.0757098615
0
LINE
5
273
100
AcDbEntity
8
0
100
AcDbLine
62
7
6
CONTINUOUS
10
100.2434026443
20
234.3514142453
11
100.5837451659
21
234.4619222104
0
LINE
5
274
100
AcDbEntity
8
0
100
AcDbLine
62
7
6
CONTINUOUS
10
98.0206042968
20
233.0680814206
11
98.3609468185
21
233.1785893857
0
LINE
5
275
100
AcDbEntity
8
0
100
AcDbLine
62
7
6
CONTINUOUS
10
111.4421552264
20
237.3015332639
11
111.2088218771
21
237.2270646512
0
LINE
5
276
100
AcDbEntity
8
0
100
AcDbLine
62
7
6
CONTINUOUS
10
114.2421552383
20
237.3015332639
11
114.0088218890
21
237.2270646512
0
LINE
5
277
100
AcDbEntity
8
0
100
AcDbLine
62
7
6
CONTINUOUS
10
84.3522493087
20
218.1892219007
11
84.4306871139
21
218.0472908437
0
LINE
5
278
100
AcDbEntity
8
0
100
AcDbLine
62
7
6
CONTINUOUS
10
93.9308664047
20
234.3183789670
11
93.8910142623
21
234.0374055326
0
LINE
5
279
100
AcDbEntity
8
0
100
AcDbLine
62
7
6
CONTINUOUS
10
95.8135148727
20
233.8575368344
11
95.8533679687
21
234.1385102689
0
LINE
5
27A
100
AcDbEntity
8
0
100
AcDbLine
62
7
6
CONTINUOUS
10
96.2041837417
20
235.6308789670
11
96.1643315994
21
235.3499055326
0
LINE
5
27B
100
AcDbEntity
8
0
100
AcDbLine
62
7
6
CONTINUOUS
10
98.7274724685
20
236.7437482297
11
98.8045589172
21
236.9602303922
0
LINE
5
27C
100
AcDbEntity
8
0
100
AcDbLine
62
7
6
CONTINUOUS
10
98.4672195159
20
233.9278531491
11
98.3901340209
21
233.7113709867
0
LINE
5
27D
100
AcDbEntity
8
0
100
AcDbLine
62
7
6
CONTINUOUS
10
98.6268216811
20
233.4180798948
11
98.7677108489
21
233.7573876798
0
LINE
5
27E
100
AcDbEntity
8
0
100
AcDbLine
62
7
6
CONTINUOUS
10
100.8496200286
20
234.7014146268
11
100.9905091964
21
235.0407205045
0
LINE
5
27F
100
AcDbEntity
8
0
100
AcDbLine
62
7
6
CONTINUOUS
10
103.1891648017
20
238.1158700406
11
103.3167692863
21
238.3615193784
0
LINE
5
280
100
AcDbEntity
8
0
100
AcDbLine
62
7
6
CONTINUOUS
10
105.3857809745
20
235.9445538938
11
105.5001012527
21
236.0965447843
0
LINE
5
281
100
AcDbEntity
8
0
100
AcDbLine
62
7
6
CONTINUOUS
10
105.2368447028
20
236.2025189817
11
105.0720059119
21
236.0213609159
0
LINE
5
282
100
AcDbEntity
8
0
100
AcDbLine
62
7
6
CONTINUOUS
10
105.2209421836
20
235.7633958280
11
105.3857809745
21
235.9445538938
0
LINE
5
283
100
AcDbEntity
8
0
100
AcDbLine
62
7
6
CONTINUOUS
10
111.6171552383
20
237.4504685819
11
111.4421552264
21
237.3015332639
0
LINE
5
284
100
AcDbEntity
8
0
100
AcDbLine
62
7
6
CONTINUOUS
10
111.5004885339
20
236.8547234952
11
111.7338218533
21
237.0036607206
0
LINE
5
285
100
AcDbEntity
8
0
100
AcDbLine
62
7
6
CONTINUOUS
10
114.3004886352
20
236.8547234952
11
114.5338219844
21
237.0036607206
0
LINE
5
286
100
AcDbEntity
8
0
100
AcDbLine
62
7
6
CONTINUOUS
10
84.7046376907
20
218.2025962293
11
84.5282251083
21
218.4404330671
0
LINE
5
287
100
AcDbEntity
8
0
100
AcDbLine
62
7
6
CONTINUOUS
10
87.8284436904
20
227.8488583982
11
87.7695409499
21
228.0368161618
0
LINE
5
288
100
AcDbEntity
8
0
100
AcDbLine
62
7
6
CONTINUOUS
10
87.4562265121
20
228.1154923856
11
87.5348111831
21
227.8105435788
0
LINE
5
289
100
AcDbEntity
8
0
100
AcDbLine
62
7
6
CONTINUOUS
10
94.2287389480
20
233.8024506986
11
94.2180730544
21
234.0542569577
0
LINE
5
28A
100
AcDbEntity
8
0
100
AcDbLine
62
7
6
CONTINUOUS
10
93.5188218795
20
182.4102559507
11
93.5188218795
21
183.0665665764
0
LINE
5
28B
100
AcDbEntity
8
0
100
AcDbLine
62
7
6
CONTINUOUS
10
94.9229013168
20
232.4834580838
11
94.9255201064
21
232.8289227903
0
LINE
5
28C
100
AcDbEntity
8
0
100
AcDbLine
62
7
6
CONTINUOUS
10
96.3480760299
20
233.0483174741
11
96.3454572402
21
232.7028527677
0
LINE
5
28D
100
AcDbEntity
8
0
100
AcDbLine
62
7
6
CONTINUOUS
10
96.6459485732
20
232.5323872983
11
96.6858007156
21
232.8133607328
0
LINE
5
28E
100
AcDbEntity
8
0
100
AcDbLine
62
7
6
CONTINUOUS
10
98.4269820892
20
236.9142136991
11
98.3871299468
21
236.6332402646
0
LINE
5
28F
100
AcDbEntity
8
0
100
AcDbLine
62
7
6
CONTINUOUS
10
98.7677108489
20
233.7573876798
11
98.8075629913
21
234.0383611142
0
LINE
5
290
100
AcDbEntity
8
0
100
AcDbLine
62
7
6
CONTINUOUS
10
100.6900188171
20
235.2111859739
11
100.6129323684
21
234.9947038114
0
LINE
5
291
100
AcDbEntity
8
0
100
AcDbLine
62
7
6
CONTINUOUS
10
102.9657603942
20
238.5028176725
11
102.8886739455
21
238.2863355100
0
LINE
5
292
100
AcDbEntity
8
0
100
AcDbLine
62
7
6
CONTINUOUS
10
104.7900358878
20
236.9764142453
11
104.8538381301
21
237.0992379605
0
LINE
5
293
100
AcDbEntity
8
0
100
AcDbLine
62
7
6
CONTINUOUS
10
109.1088219129
20
239.0142980039
11
108.9921552383
21
238.8653626859
0
LINE
5
294
100
AcDbEntity
8
0
100
AcDbLine
62
7
6
CONTINUOUS
10
114.4171551906
20
237.4504685819
11
114.2421552383
21
237.3015332639
0
LINE
5
295
100
AcDbEntity
8
0
100
AcDbLine
62
7
6
CONTINUOUS
10
83.6470357620
20
218.6515212476
11
83.3926221572
21
218.5422411382
0
LINE
5
296
100
AcDbEntity
8
DEFAULT_2
100
AcDbLine
62
8
6
HIDDEN
10
119.0188218795
20
183.4102559507
11
120.5188218795
21
181.9102559507
0
LINE
5
297
100
AcDbEntity
8
0
100
AcDbLine
62
7
6
CONTINUOUS
10
88.4550725662
20
227.6915059507
11
88.5728761398
21
227.3155942380
0
LINE
5
298
100
AcDbEntity
8
0
100
AcDbLine
62
7
6
CONTINUOUS
10
88.8272897445
20
227.4248738706
11
88.7683870040
21
227.6128297269
0
LINE
5
299
100
AcDbEntity
8
0
100
AcDbLine
62
7
6
CONTINUOUS
10
90.0210630141
20
227.9501901090
11
90.0799638473
21
227.7622342527
0
LINE
5
29A
100
AcDbEntity
8
0
100
AcDbLine
62
7
6
CONTINUOUS
10
90.3932782851
20
227.6835580289
11
90.3146936141
21
227.9885049283
0
LINE
5
29B
100
AcDbEntity
8
0
100
AcDbLine
62
7
6
CONTINUOUS
10
95.5156432830
20
234.3734670102
11
95.5263091766
21
234.1216607511
0
LINE
5
29C
100
AcDbEntity
8
0
100
AcDbLine
62
7
6
CONTINUOUS
10
96.5260059081
20
234.9568009793
11
96.5046741210
21
235.4604154050
0
LINE
5
29D
100
AcDbEntity
8
0
100
AcDbLine
62
7
6
CONTINUOUS
10
98.4458886825
20
234.4314675748
11
98.4672195159
21
233.9278531491
0
LINE
5
29E
100
AcDbEntity
8
0
100
AcDbLine
62
7
6
CONTINUOUS
10
100.9905091964
20
235.0407205045
11
101.0303613387
21
235.3216939389
0
LINE
5
29F
100
AcDbEntity
8
0
100
AcDbLine
62
7
6
CONTINUOUS
10
101.7402335845
20
236.0754933774
11
101.8066541396
21
236.5437817990
0
LINE
5
2A0
100
AcDbEntity
8
0
100
AcDbLine
62
7
6
CONTINUOUS
10
104.6809522353
20
237.5153527677
11
104.6038657867
21
237.2988706052
0
LINE
5
2A1
100
AcDbEntity
8
0
100
AcDbLine
62
7
6
CONTINUOUS
10
105.5001012527
20
236.0965447843
11
105.5771877013
21
236.3130269468
0
LINE
5
2A2
100
AcDbEntity
8
0
100
AcDbLine
62
7
6
CONTINUOUS
10
109.2838218652
20
238.6419587552
11
109.4588219367
21
238.9398312986
0
LINE
5
2A3
100
AcDbEntity
8
0
100
AcDbLine
62
7
6
CONTINUOUS
10
111.7338218533
20
237.0036607206
11
111.9671552025
21
237.3015332639
0
LINE
5
2A4
100
AcDbEntity
8
0
100
AcDbLine
62
7
6
CONTINUOUS
10
114.5338219844
20
237.0036607206
11
114.7671550952
21
237.3015332639
0
LINE
5
2A5
100
AcDbEntity
8
0
100
AcDbLine
62
7
6
CONTINUOUS
10
84.1955186569
20
218.3100676953
11
84.3522493087
21
218.1892219007
0
LINE
5
2A6
100
AcDbEntity
8
0
100
AcDbLine
62
7
6
CONTINUOUS
10
84.5282251083
20
218.4404330671
11
84.3714944564
21
218.5612788617
0
LINE
5
2A7
100
AcDbEntity
8
0
100
AcDbLine
62
7
6
CONTINUOUS
10
86.9090577804
20
226.9898009717
11
87.2031270705
21
226.5390677869
0
LINE
5
2A8
100
AcDbEntity
8
0
100
AcDbLine
62
7
6
CONTINUOUS
10
87.6731721603
20
226.3395448148
11
87.3791028701
21
226.7902789533
0
LINE
5
2A9
100
AcDbEntity
8
0
100
AcDbLine
62
7
6
CONTINUOUS
10
88.9057275497
20
227.2829432904
11
88.8272897445
21
227.4248738706
0
LINE
5
2AA
100
AcDbEntity
8
0
100
AcDbLine
62
7
6
CONTINUOUS
10
93.8910142623
20
234.0374055326
11
93.9761487685
21
233.6566167295
0
LINE
5
2AB
100
AcDbEntity
8
0
100
AcDbLine
62
7
6
CONTINUOUS
10
94.5851766311
20
232.7184148252
11
94.6703111373
21
232.3376241147
0
LINE
5
2AC
100
AcDbEntity
8
0
100
AcDbLine
62
7
6
CONTINUOUS
10
95.8533679687
20
234.1385102689
11
95.8054677688
21
234.4548097074
0
LINE
5
2AD
100
AcDbEntity
8
0
100
AcDbLine
62
7
6
CONTINUOUS
10
98.7488042556
20
236.2401338041
11
98.7274724685
21
236.7437482297
0
LINE
5
2AE
100
AcDbEntity
8
0
100
AcDbLine
62
7
6
CONTINUOUS
10
100.6686870300
20
235.7148003995
11
100.6900188171
21
235.2111859739
0
LINE
5
2AF
100
AcDbEntity
8
0
100
AcDbLine
62
7
6
CONTINUOUS
10
101.8465062820
20
236.8247571408
11
101.9181634628
21
237.9839768827
0
LINE
5
2B0
100
AcDbEntity
8
0
100
AcDbLine
62
7
6
CONTINUOUS
10
101.6150552474
20
237.8089757383
11
101.5168296539
21
236.4624410093
0
LINE
5
2B1
100
AcDbEntity
8
0
100
AcDbLine
62
7
6
CONTINUOUS
10
102.8886739455
20
238.2863355100
11
102.8488218032
21
238.0053620755
0
LINE
5
2B2
100
AcDbEntity
8
0
100
AcDbLine
62
7
6
CONTINUOUS
10
104.8538381301
20
237.0992379605
11
104.8804065429
21
237.2865548551
0
LINE
5
2B3
100
AcDbEntity
8
0
100
AcDbLine
62
7
6
CONTINUOUS
10
105.2766968452
20
236.4834924161
11
105.2368447028
21
236.2025189817
0
LINE
5
2B4
100
AcDbEntity
8
0
100
AcDbLine
62
7
6
CONTINUOUS
10
111.7338218533
20
237.6738725125
11
111.6171552383
21
237.4504685819
0
LINE
5
2B5
100
AcDbEntity
8
0
100
AcDbLine
62
7
6
CONTINUOUS
10
84.4279138290
20
221.1445947110
11
86.6026021682
21
219.4067244947
0
LINE
5
2B6
100
AcDbEntity
8
0
100
AcDbLine
62
7
6
CONTINUOUS
10
86.9745275222
20
219.4661240995
11
85.0740796767
21
221.0332675397
0
LINE
5
2B7
100
AcDbEntity
8
0
100
AcDbLine
62
7
6
CONTINUOUS
10
87.5348111831
20
227.8105435788
11
87.7112237655
21
227.5727067411
0
LINE
5
2B8
100
AcDbEntity
8
0
100
AcDbLine
62
7
6
CONTINUOUS
10
96.6858007156
20
232.8133607328
11
96.6006671630
21
233.1941514432
0
LINE
5
2B9
100
AcDbEntity
8
0
100
AcDbLine
62
7
6
CONTINUOUS
10
96.1643315994
20
235.3499055326
11
96.2122308456
21
235.0336080014
0
LINE
5
2BA
100
AcDbEntity
8
0
100
AcDbLine
62
7
6
CONTINUOUS
10
98.3871299468
20
236.6332402646
11
98.4350301467
21
236.3169408261
0
LINE
5
2BB
100
AcDbEntity
8
0
100
AcDbLine
62
7
6
CONTINUOUS
10
98.8075629913
20
234.0383611142
11
98.7596627914
21
234.3546605527
0
LINE
5
2BC
100
AcDbEntity
8
0
100
AcDbLine
62
7
6
CONTINUOUS
10
103.1998306953
20
237.8640637815
11
103.1891648017
21
238.1158700406
0
LINE
5
2BD
100
AcDbEntity
8
DEFAULT_2
100
AcDbLine
62
8
6
HIDDEN
10
103.0188218795
20
195.8458735344
11
103.0188218795
21
183.4102559507
0
LINE
5
2BE
100
AcDbEntity
8
0
100
AcDbLine
62
7
6
CONTINUOUS
10
109.1671551906
20
239.2377019345
11
109.1088219129
21
239.0142980039
0
LINE
5
2BF
100
AcDbEntity
8
0
100
AcDbLine
62
7
6
CONTINUOUS
10
109.4588219367
20
238.9398312986
11
109.5171552144
21
239.1632352292
0
LINE
5
2C0
100
AcDbEntity
8
0
100
AcDbLine
62
7
6
CONTINUOUS
10
111.9671552025
20
237.3015332639
11
112.0838219367
21
237.5994058072
0
LINE
5
2C1
100
AcDbEntity
8
0
100
AcDbLine
62
7
6
CONTINUOUS
10
114.5338219844
20
237.6738725125
11
114.4171551906
21
237.4504685819
0
LINE
5
2C2
100
AcDbEntity
8
0
100
AcDbLine
62
7
6
CONTINUOUS
10
82.7673074447
20
217.2324495732
11
85.5288221084
21
216.0602560460
0
LINE
5
2C3
100
AcDbEntity
8
0
100
AcDbLine
62
7
6
CONTINUOUS
10
84.0596391402
20
217.0097952306
11
83.1783048354
21
217.3838992536
0
LINE
5
2C4
100
AcDbEntity
8
0
100
AcDbLine
62
7
6
CONTINUOUS
10
85.6460420333
20
216.3364072263
11
84.4121724807
21
216.8601532399
0
LINE
5
2C5
100
AcDbEntity
8
0
100
AcDbLine
62
7
6
CONTINUOUS
10
87.9656373702
20
227.6819882810
11
87.8284436904
21
227.8488583982
0
LINE
5
2C6
100
AcDbEntity
8
0
100
AcDbLine
62
7
6
CONTINUOUS
10
89.8838693343
20
228.1170621335
11
90.0210630141
21
227.9501901090
0
LINE
5
2C7
100
AcDbEntity
8
0
100
AcDbLine
62
7
6
CONTINUOUS
10
90.3146936141
20
227.9885049283
11
90.1382810317
21
228.2263417661
0
LINE
5
2C8
100
AcDbEntity
8
0
100
AcDbLine
62
7
6
CONTINUOUS
10
96.2734147750
20
234.8109670102
11
96.4090673171
21
234.4593434751
0
LINE
5
2C9
100
AcDbEntity
8
0
100
AcDbLine
62
7
6
CONTINUOUS
10
96.2122308456
20
235.0336080014
11
96.2734147750
21
234.8109670102
0
LINE
5
2CA
100
AcDbEntity
8
0
100
AcDbLine
62
7
6
CONTINUOUS
10
98.7596627914
20
234.3546605527
11
98.6984788619
21
234.5772996366
0
LINE
5
2CB
100
AcDbEntity
8
0
100
AcDbLine
62
7
6
CONTINUOUS
10
98.4350301467
20
236.3169408261
11
98.4962140762
21
236.0942998349
0
LINE
5
2CC
100
AcDbEntity
8
0
100
AcDbLine
62
7
6
CONTINUOUS
10
101.0303613387
20
235.3216939389
11
100.9824611388
21
235.6379933774
0
LINE
5
2CD
100
AcDbEntity
8
0
100
AcDbLine
62
7
6
CONTINUOUS
10
104.6702863418
20
237.7671590268
11
104.6809522353
21
237.5153527677
0
LINE
5
2CE
100
AcDbEntity
8
0
100
AcDbLine
62
7
6
CONTINUOUS
10
105.5771877013
20
236.3130269468
11
105.5665218078
21
236.5648351133
0
LINE
5
2CF
100
AcDbEntity
8
0
100
AcDbLine
62
7
6
CONTINUOUS
10
107.3588217937
20
240.2802567899
11
107.3588217937
21
236.7802567899
0
LINE
5
2D0
100
AcDbEntity
8
0
100
AcDbLine
62
7
6
CONTINUOUS
10
107.7088219367
20
236.7802567899
11
107.7088219367
21
238.3440862119
0
LINE
5
2D1
100
AcDbEntity
8
0
100
AcDbLine
62
7
6
CONTINUOUS
10
107.7088219367
20
238.7908940732
11
107.7088219367
21
239.9079156339
0
LINE
5
2D2
100
AcDbEntity
8
0
100
AcDbLine
62
7
6
CONTINUOUS
10
112.0838219367
20
237.5994058072
11
112.1421552144
21
237.9717450559
0
LINE
5
2D3
100
AcDbEntity
8
0
100
AcDbLine
62
7
6
CONTINUOUS
10
111.7921551906
20
237.9717450559
11
111.7338218533
21
237.6738725125
0
LINE
5
2D4
100
AcDbEntity
8
0
100
AcDbLine
62
7
6
CONTINUOUS
10
114.7671550952
20
237.3015332639
11
114.8838218890
21
237.5994058072
0
LINE
5
2D5
100
AcDbEntity
8
0
100
AcDbLine
62
7
6
CONTINUOUS
10
84.0192529403
20
218.3848886907
11
84.1955186569
21
218.3100676953
0
LINE
5
2D6
100
AcDbEntity
8
0
100
AcDbLine
62
7
6
CONTINUOUS
10
84.3714944564
20
218.5612788617
11
84.1364709579
21
218.6610403478
0
LINE
5
2D7
100
AcDbEntity
8
0
100
AcDbLine
62
7
6
CONTINUOUS
10
83.6659890853
20
219.3496103704
11
86.4275037490
21
218.1774173200
0
LINE
5
2D8
100
AcDbEntity
8
0
100
AcDbLine
62
7
6
CONTINUOUS
10
86.5447236739
20
218.4535685002
11
84.3707639419
21
219.3763590276
0
LINE
5
2D9
100
AcDbEntity
8
0
100
AcDbLine
62
7
6
CONTINUOUS
10
85.0740796767
20
221.0332675397
11
87.2480394088
21
220.1104770124
0
LINE
5
2DA
100
AcDbEntity
8
0
100
AcDbLine
62
7
6
CONTINUOUS
10
86.4597169601
20
225.9312205732
11
88.6344052993
21
224.1933494031
0
LINE
5
2DB
100
AcDbEntity
8
0
100
AcDbLine
62
7
6
CONTINUOUS
10
89.0063287460
20
224.2527490079
11
87.1058828079
21
225.8198934018
0
LINE
5
2DC
100
AcDbEntity
8
0
100
AcDbLine
62
7
6
CONTINUOUS
10
87.7112237655
20
227.5727067411
11
87.9659291946
21
227.3559556424
0
LINE
5
2DD
100
AcDbEntity
8
0
100
AcDbLine
62
7
6
CONTINUOUS
10
94.6703111373
20
232.3376241147
11
94.7820131027
21
232.1441502988
0
LINE
5
2DE
100
AcDbEntity
8
0
100
AcDbLine
62
7
6
CONTINUOUS
10
93.9761487685
20
233.6566167295
11
94.0878507339
21
233.4631429135
0
LINE
5
2DF
100
AcDbEntity
8
0
100
AcDbLine
62
7
6
CONTINUOUS
10
95.0346042358
20
232.2899842679
11
94.9229013168
21
232.4834580838
0
LINE
5
2E0
100
AcDbEntity
8
0
100
AcDbLine
62
7
6
CONTINUOUS
10
94.3032075607
20
233.6734681546
11
94.2287389480
21
233.8024506986
0
LINE
5
2E1
100
AcDbEntity
8
0
100
AcDbLine
62
7
6
CONTINUOUS
10
95.4411746703
20
234.5024495542
11
95.5156432830
21
234.3734670102
0
LINE
5
2E2
100
AcDbEntity
8
0
100
AcDbLine
62
7
6
CONTINUOUS
10
96.2363740646
20
233.2417912900
11
96.3480760299
21
233.0483174741
0
LINE
5
2E3
100
AcDbEntity
8
0
100
AcDbLine
62
7
6
CONTINUOUS
10
96.6988918029
20
234.5406861722
11
96.5260059081
21
234.9568009793
0
LINE
5
2E4
100
AcDbEntity
8
0
100
AcDbLine
62
7
6
CONTINUOUS
10
98.2730018340
20
234.8475804746
11
98.4458886825
21
234.4314675748
0
LINE
5
2E5
100
AcDbEntity
8
0
100
AcDbLine
62
7
6
CONTINUOUS
10
98.6984788619
20
234.5772996366
11
98.5628272735
21
234.9289231717
0
LINE
5
2E6
100
AcDbEntity
8
0
100
AcDbLine
62
7
6
CONTINUOUS
10
98.4962140762
20
236.0942998349
11
98.6318656646
21
235.7426782071
0
LINE
5
2E7
100
AcDbEntity
8
0
100
AcDbLine
62
7
6
CONTINUOUS
10
100.9824611388
20
235.6379933774
11
100.9212772094
21
235.8606343686
0
LINE
5
2E8
100
AcDbEntity
8
0
100
AcDbLine
62
7
6
CONTINUOUS
10
102.8488218032
20
238.0053620755
11
102.8727723800
21
237.8472123563
0
LINE
5
2E9
100
AcDbEntity
8
0
100
AcDbLine
62
7
6
CONTINUOUS
10
109.1671551906
20
239.4611077726
11
109.1671551906
21
239.2377019345
0
LINE
5
2EA
100
AcDbEntity
8
0
100
AcDbLine
62
7
6
CONTINUOUS
10
109.5171552144
20
239.1632352292
11
109.5171552144
21
239.4611077726
0
LINE
5
2EB
100
AcDbEntity
8
0
100
AcDbLine
62
7
6
CONTINUOUS
10
110.0421551906
20
240.2802567899
11
110.0421551906
21
237.9717450559
0
LINE
5
2EC
100
AcDbEntity
8
0
100
AcDbLine
62
7
6
CONTINUOUS
10
110.3921552144
20
237.9717450559
11
110.3921552144
21
240.2802567899
0
LINE
5
2ED
100
AcDbEntity
8
DEFAULT_1
100
AcDbLine
62
2
6
CENTER
10
111.0188218795
20
211.4102559507
11
111.0188218795
21
179.1672105562
0
LINE
5
2EE
100
AcDbEntity
8
DEFAULT_1
100
AcDbLine
62
2
6
CENTER
10
111.0188218795
20
211.4102559507
11
111.0188218795
21
231.9102559507
0
LINE
5
2EF
100
AcDbEntity
8
0
100
AcDbLine
62
7
6
CONTINUOUS
10
114.8838218890
20
237.5994058072
11
114.9421552860
21
237.9717450559
0
LINE
5
2F0
100
AcDbEntity
8
0
100
AcDbLine
62
7
6
CONTINUOUS
10
114.5921551429
20
237.9717450559
11
114.5338219844
21
237.6738725125
0
LINE
5
2F1
100
AcDbEntity
8
DEFAULT_1
100
AcDbLine
62
2
6
CENTER
10
111.0188218795
20
211.4102559507
11
90.5188218795
21
211.4102559507
0
LINE
5
2F2
100
AcDbEntity
8
DEFAULT_1
100
AcDbLine
62
2
6
CENTER
10
111.0188218795
20
211.4102559507
11
131.5188218795
21
211.4102559507
0
LINE
5
2F3
100
AcDbEntity
8
0
100
AcDbLine
62
7
6
CONTINUOUS
10
87.3652574264
20
220.3866286695
11
84.6037427627
21
221.5588221967
0
LINE
5
2F4
100
AcDbEntity
8
0
100
AcDbLine
62
7
6
CONTINUOUS
10
85.6977903091
20
224.1362357557
11
88.4593049728
21
222.9640422284
0
LINE
5
2F5
100
AcDbEntity
8
0
100
AcDbLine
62
7
6
CONTINUOUS
10
88.1223680221
20
227.5611424863
11
87.9656373702
21
227.6819882810
0
LINE
5
2F6
100
AcDbEntity
8
0
100
AcDbLine
62
7
6
CONTINUOUS
10
89.0624582015
20
227.1620974958
11
88.9057275497
21
227.2829432904
0
LINE
5
2F7
100
AcDbEntity
8
0
100
AcDbLine
62
7
6
CONTINUOUS
10
89.7271386825
20
228.2379079282
11
89.8838693343
21
228.1170621335
0
LINE
5
2F8
100
AcDbEntity
8
0
100
AcDbLine
62
7
6
CONTINUOUS
10
90.1382810317
20
228.2263417661
11
89.8835756027
21
228.4430928647
0
LINE
5
2F9
100
AcDbEntity
8
0
100
AcDbLine
62
7
6
CONTINUOUS
10
95.8054677688
20
234.4548097074
11
95.6937658035
21
234.6482835233
0
LINE
5
2FA
100
AcDbEntity
8
0
100
AcDbLine
62
7
6
CONTINUOUS
10
96.6006671630
20
233.1941514432
11
96.4889642440
21
233.3876252591
0
LINE
5
2FB
100
AcDbEntity
8
0
100
AcDbLine
62
7
6
CONTINUOUS
10
96.4090673171
20
234.4593434751
11
96.7441732131
21
233.8789239347
0
LINE
5
2FC
100
AcDbEntity
8
0
100
AcDbLine
62
7
6
CONTINUOUS
10
96.9595300399
20
234.0892472684
11
96.6988918029
21
234.5406861722
0
LINE
5
2FD
100
AcDbEntity
8
0
100
AcDbLine
62
7
6
CONTINUOUS
10
98.0123635970
20
235.2990193784
11
98.2730018340
21
234.8475804746
0
LINE
5
2FE
100
AcDbEntity
8
0
100
AcDbLine
62
7
6
CONTINUOUS
10
98.5628272735
20
234.9289231717
11
98.2277204238
21
235.5093446195
0
LINE
5
2FF
100
AcDbEntity
8
0
100
AcDbLine
62
7
6
CONTINUOUS
10
98.9216901504
20
235.8240189969
11
98.7488042556
21
236.2401338041
0
LINE
5
300
100
AcDbEntity
8
0
100
AcDbLine
62
7
6
CONTINUOUS
10
100.4958011352
20
236.1309152066
11
100.6686870300
21
235.7148003995
0
LINE
5
301
100
AcDbEntity
8
0
100
AcDbLine
62
7
6
CONTINUOUS
10
100.9212772094
20
235.8606343686
11
100.7856256210
21
236.2122559964
0
LINE
5
302
100
AcDbEntity
8
0
100
AcDbLine
62
7
6
CONTINUOUS
10
102.8727723800
20
237.8472123563
11
102.9711896621
21
237.5600800931
0
LINE
5
303
100
AcDbEntity
8
0
100
AcDbLine
62
7
6
CONTINUOUS
10
103.2610146247
20
237.6414227903
11
103.1998306953
21
237.8640637815
0
LINE
5
304
100
AcDbEntity
8
0
100
AcDbLine
62
7
6
CONTINUOUS
10
104.8804065429
20
237.2865548551
11
104.8564564430
21
237.4447026670
0
LINE
5
305
100
AcDbEntity
8
0
100
AcDbLine
62
7
6
CONTINUOUS
10
105.2527467452
20
236.6416421354
11
105.2766968452
21
236.4834924161
0
LINE
5
306
100
AcDbEntity
8
0
100
AcDbLine
62
7
6
CONTINUOUS
10
111.7921551906
20
240.2802567899
11
111.7921551906
21
237.9717450559
0
LINE
5
307
100
AcDbEntity
8
0
100
AcDbLine
62
7
6
CONTINUOUS
10
112.1421552144
20
237.9717450559
11
112.1421552144
21
240.2802567899
0
LINE
5
308
100
AcDbEntity
8
0
100
AcDbLine
62
7
6
CONTINUOUS
10
112.6088219129
20
240.2802567899
11
112.6088219129
21
236.7802567899
0
LINE
5
309
100
AcDbEntity
8
0
100
AcDbLine
62
7
6
CONTINUOUS
10
112.9588219367
20
237.2270646512
11
112.9588219367
21
239.8334470212
0
LINE
5
30A
100
AcDbEntity
8
0
100
AcDbLine
62
7
6
CONTINUOUS
10
86.2712117873
20
217.8092151105
11
84.7440034591
21
217.9686146199
0
LINE
5
30B
100
AcDbEntity
8
0
100
AcDbLine
62
7
6
CONTINUOUS
10
84.7442952834
20
217.6425824582
11
86.1344548904
21
217.4870386541
0
LINE
5
30C
100
AcDbEntity
8
0
100
AcDbLine
62
7
6
CONTINUOUS
10
84.3707639419
20
219.3763590276
11
86.8182336532
21
219.0979218900
0
LINE
5
30D
100
AcDbEntity
8
0
100
AcDbLine
62
7
6
CONTINUOUS
10
86.6026021682
20
219.4067244947
11
83.8418180190
21
219.7638373792
0
LINE
5
30E
100
AcDbEntity
8
0
100
AcDbLine
62
7
6
CONTINUOUS
10
83.8234483444
20
218.4136844098
11
84.0192529403
21
218.3848886907
0
LINE
5
30F
100
AcDbEntity
8
0
100
AcDbLine
62
7
6
CONTINUOUS
10
84.1364709579
20
218.6610403478
11
83.9406682693
21
218.6898355901
0
LINE
5
310
100
AcDbEntity
8
0
100
AcDbLine
62
7
6
CONTINUOUS
10
88.5765248977
20
223.2401938855
11
86.4025670730
21
224.1629844129
0
LINE
5
311
100
AcDbEntity
8
0
100
AcDbLine
62
7
6
CONTINUOUS
10
87.1058828079
20
225.8198934018
11
89.2798406326
21
224.8971028745
0
LINE
5
312
100
AcDbEntity
8
0
100
AcDbLine
62
7
6
CONTINUOUS
10
89.3970605575
20
225.1732535779
11
86.6355458938
21
226.3454471051
0
LINE
5
313
100
AcDbEntity
8
0
100
AcDbLine
62
7
6
CONTINUOUS
10
87.2031270705
20
226.5390677869
11
87.6731721603
21
226.3395448148
0
LINE
5
314
100
AcDbEntity
8
0
100
AcDbLine
62
7
6
CONTINUOUS
10
87.9659291946
20
227.3559556424
11
88.3576814376
21
227.1353488385
0
LINE
5
315
100
AcDbEntity
8
0
100
AcDbLine
62
7
6
CONTINUOUS
10
88.4553643905
20
227.3654742658
11
88.1223680221
21
227.5611424863
0
LINE
5
316
100
AcDbEntity
8
0
100
AcDbLine
62
7
6
CONTINUOUS
10
94.7820131027
20
232.1441502988
11
95.0692197524
21
231.8800282895
0
LINE
5
317
100
AcDbEntity
8
0
100
AcDbLine
62
7
6
CONTINUOUS
10
96.7441732131
20
233.8789239347
11
96.9808618270
21
233.5856328427
0
LINE
5
318
100
AcDbEntity
8
0
100
AcDbLine
62
7
6
CONTINUOUS
10
97.2334529601
20
233.7314668119
11
96.9595300399
21
234.0892472684
0
LINE
5
319
100
AcDbEntity
8
0
100
AcDbLine
62
7
6
CONTINUOUS
10
97.7384416305
20
235.6567998349
11
98.0123635970
21
235.2990193784
0
LINE
5
31A
100
AcDbEntity
8
0
100
AcDbLine
62
7
6
CONTINUOUS
10
98.6318656646
20
235.7426782071
11
98.9669725143
21
235.1622567594
0
LINE
5
31B
100
AcDbEntity
8
0
100
AcDbLine
62
7
6
CONTINUOUS
10
99.1823283874
20
235.3725800931
11
98.9216901504
21
235.8240189969
0
LINE
5
31C
100
AcDbEntity
8
0
100
AcDbLine
62
7
6
CONTINUOUS
10
100.2351619445
20
236.5823522031
11
100.4958011352
21
236.1309152066
0
LINE
5
31D
100
AcDbEntity
8
0
100
AcDbLine
62
7
6
CONTINUOUS
10
100.7856256210
20
236.2122559964
11
100.4505187713
21
236.7926774442
0
LINE
5
31E
100
AcDbEntity
8
0
100
AcDbLine
62
7
6
CONTINUOUS
10
100.1472179137
20
238.2513451993
11
101.8972179137
21
235.2202554166
0
LINE
5
31F
100
AcDbEntity
8
0
100
AcDbLine
62
7
6
CONTINUOUS
10
105.1543289863
20
236.9287724912
11
105.2527467452
21
236.6416421354
0
LINE
5
320
100
AcDbEntity
8
0
100
AcDbLine
62
7
6
CONTINUOUS
10
105.5665218078
20
236.5648351133
11
105.4069196426
21
237.0746064603
0
LINE
5
321
100
AcDbEntity
8
0
100
AcDbLine
62
7
6
CONTINUOUS
10
110.0421551906
20
237.9717450559
11
110.1004885279
21
237.5994058072
0
LINE
5
322
100
AcDbEntity
8
0
100
AcDbLine
62
7
6
CONTINUOUS
10
114.5921551429
20
239.0887666166
11
114.5921551429
21
237.9717450559
0
LINE
5
323
100
AcDbEntity
8
0
100
AcDbLine
62
7
6
CONTINUOUS
10
114.9421552860
20
237.9717450559
11
114.9421552860
21
239.0887666166
0
LINE
5
324
100
AcDbEntity
8
0
100
AcDbLine
62
7
6
CONTINUOUS
10
87.3791028701
20
226.7902789533
11
89.6705724441
21
225.8176074445
0
LINE
5
325
100
AcDbEntity
8
0
100
AcDbLine
62
7
6
CONTINUOUS
10
89.7877904617
20
226.0937591016
11
87.0262757980
21
227.2659526288
0
LINE
5
326
100
AcDbEntity
8
0
100
AcDbLine
62
7
6
CONTINUOUS
10
88.3576814376
20
227.1353488385
11
88.7689706527
21
226.9607663572
0
LINE
5
327
100
AcDbEntity
8
0
100
AcDbLine
62
7
6
CONTINUOUS
10
88.5728761398
20
227.3155942380
11
88.4553643905
21
227.3654742658
0
LINE
5
328
100
AcDbEntity
8
0
100
AcDbLine
62
7
6
CONTINUOUS
10
89.2387239181
20
227.0872760236
11
89.0624582015
21
227.1620974958
0
LINE
5
329
100
AcDbEntity
8
0
100
AcDbLine
62
7
6
CONTINUOUS
10
89.5508710586
20
228.3127274930
11
89.7271386825
21
228.2379079282
0
LINE
5
32A
100
AcDbEntity
8
0
100
AcDbLine
62
7
6
CONTINUOUS
10
89.8835756027
20
228.4430928647
11
89.5897981368
21
228.5677953183
0
LINE
5
32B
100
AcDbEntity
8
0
100
AcDbLine
62
7
6
CONTINUOUS
10
94.0878507339
20
233.4631429135
11
94.3378240310
21
233.2635102689
0
LINE
5
32C
100
AcDbEntity
8
0
100
AcDbLine
62
7
6
CONTINUOUS
10
96.4889642440
20
233.3876252591
11
96.2017585479
21
233.6517472684
0
LINE
5
32D
100
AcDbEntity
8
0
100
AcDbLine
62
7
6
CONTINUOUS
10
95.6937658035
20
234.6482835233
11
95.4065591537
21
234.9124055326
0
LINE
5
32E
100
AcDbEntity
8
0
100
AcDbLine
62
7
6
CONTINUOUS
10
96.9808618270
20
233.5856328427
11
97.1430818282
21
233.4213262021
0
LINE
5
32F
100
AcDbEntity
8
0
100
AcDbLine
62
7
6
CONTINUOUS
10
98.2277204238
20
235.5093446195
11
97.9910318099
21
235.8026338041
0
LINE
5
330
100
AcDbEntity
8
0
100
AcDbLine
62
7
6
CONTINUOUS
10
98.9669725143
20
235.1622567594
11
99.2036601745
21
234.8689675748
0
LINE
5
331
100
AcDbEntity
8
0
100
AcDbLine
62
7
6
CONTINUOUS
10
99.4562513076
20
235.0147996366
11
99.1823283874
21
235.3725800931
0
LINE
5
332
100
AcDbEntity
8
0
100
AcDbLine
62
7
6
CONTINUOUS
10
99.9612399780
20
236.9401345670
11
100.2351619445
21
236.5823522031
0
LINE
5
333
100
AcDbEntity
8
0
100
AcDbLine
62
7
6
CONTINUOUS
10
102.1498080932
20
235.3660893857
11
101.7402335845
21
236.0754933774
0
LINE
5
334
100
AcDbEntity
8
0
100
AcDbLine
62
7
6
CONTINUOUS
10
101.5168296539
20
236.4624410093
11
100.3998080932
21
238.3971772611
0
LINE
5
335
100
AcDbEntity
8
0
100
AcDbLine
62
7
6
CONTINUOUS
10
102.9711896621
20
237.5600800931
11
103.2690622054
21
237.0441518247
0
LINE
5
336
100
AcDbEntity
8
0
100
AcDbLine
62
7
6
CONTINUOUS
10
103.4844190322
20
237.2544751584
11
103.2610146247
21
237.6414227903
0
LINE
5
337
100
AcDbEntity
8
0
100
AcDbLine
62
7
6
CONTINUOUS
10
109.5754884921
20
236.7802567899
11
109.0504885160
21
238.4930215299
0
LINE
5
338
100
AcDbEntity
8
0
100
AcDbLine
62
7
6
CONTINUOUS
10
108.7004884921
20
238.3440862119
11
109.1671551906
21
236.7802567899
0
LINE
5
339
100
AcDbEntity
8
0
100
AcDbLine
62
7
6
CONTINUOUS
10
109.1088219129
20
239.6845117032
11
109.1671551906
21
239.4611077726
0
LINE
5
33A
100
AcDbEntity
8
0
100
AcDbLine
62
7
6
CONTINUOUS
10
109.5171552144
20
239.4611077726
11
109.4588219367
21
239.6845117032
0
LINE
5
33B
100
AcDbEntity
8
0
100
AcDbLine
62
7
6
CONTINUOUS
10
110.4504885517
20
237.6738725125
11
110.3921552144
21
237.9717450559
0
LINE
5
33C
100
AcDbEntity
8
DEFAULT_2
100
AcDbLine
62
8
6
HIDDEN
10
119.0188218795
20
195.8458735344
11
119.0188218795
21
183.4102559507
0
LINE
5
33D
100
AcDbEntity
8
0
100
AcDbLine
62
7
6
CONTINUOUS
10
83.9406682693
20
218.6898355901
11
83.6470357620
21
218.6515212476
0
LINE
5
33E
100
AcDbEntity
8
0
100
AcDbLine
62
7
6
CONTINUOUS
10
86.4025670730
20
224.1629844129
11
88.8500367843
21
223.8845467984
0
LINE
5
33F
100
AcDbEntity
8
0
100
AcDbLine
62
7
6
CONTINUOUS
10
88.6344052993
20
224.1933494031
11
85.8736192428
21
224.5504632413
0
LINE
5
340
100
AcDbEntity
8
0
100
AcDbLine
62
7
6
CONTINUOUS
10
88.7689706527
20
226.9607663572
11
89.1997968398
21
226.8322101056
0
LINE
5
341
100
AcDbEntity
8
0
100
AcDbLine
62
7
6
CONTINUOUS
10
95.3350946151
20
232.1195187986
11
95.0346042358
21
232.2899842679
0
LINE
5
342
100
AcDbEntity
8
0
100
AcDbLine
62
7
6
CONTINUOUS
10
94.5159455978
20
233.5383267820
11
94.3032075607
21
233.6734681546
0
LINE
5
343
100
AcDbEntity
8
0
100
AcDbLine
62
7
6
CONTINUOUS
10
97.1430818282
20
233.4213262021
11
97.3930551254
21
233.2216954648
0
LINE
5
344
100
AcDbEntity
8
0
100
AcDbLine
62
7
6
CONTINUOUS
10
97.9910318099
20
235.8026338041
11
97.8288118087
21
235.9669404447
0
LINE
5
345
100
AcDbEntity
8
0
100
AcDbLine
62
7
6
CONTINUOUS
10
99.2036601745
20
234.8689675748
11
99.3658811294
21
234.7046590268
0
LINE
5
346
100
AcDbEntity
8
0
100
AcDbLine
62
7
6
CONTINUOUS
10
100.2138311111
20
237.0859666288
11
100.0516101562
21
237.2502751767
0
LINE
5
347
100
AcDbEntity
8
0
100
AcDbLine
62
7
6
CONTINUOUS
10
100.4505187713
20
236.7926774442
11
100.2138311111
21
237.0859666288
0
LINE
5
348
100
AcDbEntity
8
0
100
AcDbLine
62
7
6
CONTINUOUS
10
103.8883716308
20
239.1214757383
11
104.1117755615
21
238.7345281064
0
LINE
5
349
100
AcDbEntity
8
0
100
AcDbLine
62
7
6
CONTINUOUS
10
104.2979461395
20
238.4120717466
11
104.6702863418
21
237.7671590268
0
LINE
5
34A
100
AcDbEntity
8
0
100
AcDbLine
62
7
6
CONTINUOUS
10
104.8564564430
20
237.4447026670
11
105.1543289863
21
236.9287724912
0
LINE
5
34B
100
AcDbEntity
8
0
100
AcDbLine
62
7
6
CONTINUOUS
10
105.4069196426
20
237.0746064603
11
104.1409622871
21
239.2673097074
0
LINE
5
34C
100
AcDbEntity
8
0
100
AcDbLine
62
7
6
CONTINUOUS
10
110.1004885279
20
237.5994058072
11
110.2171552025
21
237.3015332639
0
LINE
5
34D
100
AcDbEntity
8
0
100
AcDbLine
62
7
6
CONTINUOUS
10
114.5338219844
20
239.3866391599
11
114.5921551429
21
239.0887666166
0
LINE
5
34E
100
AcDbEntity
8
0
100
AcDbLine
62
7
6
CONTINUOUS
10
114.9421552860
20
239.0887666166
11
114.8838218890
21
239.4611077726
0
LINE
5
34F
100
AcDbEntity
8
0
100
AcDbLine
62
7
6
CONTINUOUS
10
83.6668645583
20
218.3715143621
11
83.8234483444
21
218.4136844098
0
LINE
5
350
100
AcDbEntity
8
0
100
AcDbLine
62
7
6
CONTINUOUS
10
89.1997968398
20
226.8322101056
11
89.5326482497
21
226.7995591581
0
LINE
5
351
100
AcDbEntity
8
0
100
AcDbLine
62
7
6
CONTINUOUS
10
89.4345285140
20
227.0584807813
11
89.2387239181
21
227.0872760236
0
LINE
5
352
100
AcDbEntity
8
0
100
AcDbLine
62
7
6
CONTINUOUS
10
89.3550683700
20
228.3415246427
11
89.5508710586
21
228.3127274930
0
LINE
5
353
100
AcDbEntity
8
0
100
AcDbLine
62
7
6
CONTINUOUS
10
95.0692197524
20
231.8800282895
11
95.3324767791
21
231.7740540921
0
LINE
5
354
100
AcDbEntity
8
0
100
AcDbLine
62
7
6
CONTINUOUS
10
95.9358836852
20
233.4122567594
11
96.2363740646
21
233.2417912900
0
LINE
5
355
100
AcDbEntity
8
0
100
AcDbLine
62
7
6
CONTINUOUS
10
95.2284366332
20
234.6375909269
11
95.4411746703
21
234.5024495542
0
LINE
5
356
100
AcDbEntity
8
0
100
AcDbLine
62
7
6
CONTINUOUS
10
97.6589299880
20
233.4611859739
11
97.2334529601
21
233.7314668119
0
LINE
5
357
100
AcDbEntity
8
0
100
AcDbLine
62
7
6
CONTINUOUS
10
97.3129646026
20
235.9270806729
11
97.7384416305
21
235.6567998349
0
LINE
5
358
100
AcDbEntity
8
0
100
AcDbLine
62
7
6
CONTINUOUS
10
99.8817283355
20
234.7445187986
11
99.4562513076
21
235.0147996366
0
LINE
5
359
100
AcDbEntity
8
0
100
AcDbLine
62
7
6
CONTINUOUS
10
99.3658811294
20
234.7046590268
11
99.6158534728
21
234.5050282895
0
LINE
5
35A
100
AcDbEntity
8
0
100
AcDbLine
62
7
6
CONTINUOUS
10
97.8288118087
20
235.9669404447
11
97.5788394653
21
236.1665730893
0
LINE
5
35B
100
AcDbEntity
8
0
100
AcDbLine
62
7
6
CONTINUOUS
10
100.0516101562
20
237.2502751767
11
99.8016378127
21
237.4499059140
0
LINE
5
35C
100
AcDbEntity
8
0
100
AcDbLine
62
7
6
CONTINUOUS
10
103.8648068153
20
236.0122914731
11
104.1892477714
21
235.6836762845
0
LINE
5
35D
100
AcDbEntity
8
0
100
AcDbLine
62
7
6
CONTINUOUS
10
104.2796179496
20
235.9938168943
11
104.1173979484
21
236.1581235349
0
LINE
5
35E
100
AcDbEntity
8
0
100
AcDbLine
62
7
6
CONTINUOUS
10
103.6466395103
20
237.0901685178
11
103.4844190322
21
237.2544751584
0
LINE
5
35F
100
AcDbEntity
8
0
100
AcDbLine
62
7
6
CONTINUOUS
10
103.2690622054
20
237.0441518247
11
103.4685165130
21
236.8153520047
0
LINE
5
360
100
AcDbEntity
8
0
100
AcDbLine
62
7
6
CONTINUOUS
10
109.4588219367
20
239.6845117032
11
109.2838218652
21
239.9823842466
0
LINE
5
361
100
AcDbEntity
8
0
100
AcDbLine
62
7
6
CONTINUOUS
10
110.5671552264
20
237.4504685819
11
110.4504885517
21
237.6738725125
0
LINE
5
362
100
AcDbEntity
8
DEFAULT_2
100
AcDbLine
62
8
6
HIDDEN
10
103.0188218795
20
183.4102559507
11
101.5188218795
21
181.9102559507
0
LINE
5
363
100
AcDbEntity
8
0
100
AcDbLine
62
7
6
CONTINUOUS
10
89.5897981368
20
228.5677953183
11
89.2569467269
21
228.6004453122
0
LINE
5
364
100
AcDbEntity
8
0
100
AcDbLine
62
7
6
CONTINUOUS
10
88.4931241714
20
228.9246697843
11
88.2973195754
21
228.9534650266
0
LINE
5
365
100
AcDbEntity
8
0
100
AcDbLine
62
7
6
CONTINUOUS
10
94.3378240310
20
233.2635102689
11
94.6010801040
21
233.1575379789
0
LINE
5
366
100
AcDbEntity
8
0
100
AcDbLine
62
7
6
CONTINUOUS
10
97.3930551254
20
233.2216954648
11
97.6563111984
21
233.1157212674
0
LINE
5
367
100
AcDbEntity
8
0
100
AcDbLine
62
7
6
CONTINUOUS
10
95.4065591537
20
234.9124055326
11
95.1433021270
21
235.0183797300
0
LINE
5
368
100
AcDbEntity
8
0
100
AcDbLine
62
7
6
CONTINUOUS
10
99.5357629501
20
237.2104154050
11
99.9612399780
21
236.9401345670
0
LINE
5
369
100
AcDbEntity
8
0
100
AcDbLine
62
7
6
CONTINUOUS
10
103.4685165130
20
236.8153520047
11
103.5935026847
21
236.7155366361
0
LINE
5
36A
100
AcDbEntity
8
0
100
AcDbLine
62
7
6
CONTINUOUS
10
103.7716256820
20
236.9903531491
11
103.6466395103
21
237.0901685178
0
LINE
5
36B
100
AcDbEntity
8
0
100
AcDbLine
62
7
6
CONTINUOUS
10
110.2171552025
20
237.3015332639
11
110.4504885517
21
237.0036607206
0
LINE
5
36C
100
AcDbEntity
8
0
100
AcDbLine
62
7
6
CONTINUOUS
10
108.9921552383
20
239.8334470212
11
109.1088219129
21
239.6845117032
0
LINE
5
36D
100
AcDbEntity
8
0
100
AcDbLine
62
7
6
CONTINUOUS
10
114.4171551906
20
239.6100430906
11
114.5338219844
21
239.3866391599
0
LINE
5
36E
100
AcDbEntity
8
0
100
AcDbLine
62
7
6
CONTINUOUS
10
114.8838218890
20
239.4611077726
11
114.7671550952
21
239.7589784085
0
LINE
5
36F
100
AcDbEntity
8
0
100
AcDbLine
62
7
6
CONTINUOUS
10
128.5188218795
20
182.4102559507
11
128.5188218795
21
183.0665665764
0
LINE
5
370
100
AcDbEntity
8
0
100
AcDbLine
62
7
6
CONTINUOUS
10
89.5326482497
20
226.7995591581
11
89.8262807571
21
226.8378730237
0
LINE
5
371
100
AcDbEntity
8
0
100
AcDbLine
62
7
6
CONTINUOUS
10
89.6498681747
20
227.0757098615
11
89.4345285140
21
227.0584807813
0
LINE
5
372
100
AcDbEntity
8
0
100
AcDbLine
62
7
6
CONTINUOUS
10
88.1801015579
20
228.6773133695
11
88.3954412185
21
228.6945424497
0
LINE
5
373
100
AcDbEntity
8
0
100
AcDbLine
62
7
6
CONTINUOUS
10
95.6116353713
20
232.1072030484
11
95.3350946151
21
232.1195187986
0
LINE
5
374
100
AcDbEntity
8
0
100
AcDbLine
62
7
6
CONTINUOUS
10
95.3324767791
20
231.7740540921
11
95.6967689239
21
231.7264142453
0
LINE
5
375
100
AcDbEntity
8
0
100
AcDbLine
62
7
6
CONTINUOUS
10
97.6563111984
20
233.1157212674
11
98.0206042968
21
233.0680814206
0
LINE
5
376
100
AcDbEntity
8
0
100
AcDbLine
62
7
6
CONTINUOUS
10
97.8849517547
20
233.4197030484
11
97.6589299880
21
233.4611859739
0
LINE
5
377
100
AcDbEntity
8
0
100
AcDbLine
62
7
6
CONTINUOUS
10
94.8297197067
20
233.4615197599
11
94.5159455978
21
233.5383267820
0
LINE
5
378
100
AcDbEntity
8
0
100
AcDbLine
62
7
6
CONTINUOUS
10
96.2017585479
20
233.6517472684
11
95.8879834853
21
233.7285542905
0
LINE
5
379
100
AcDbEntity
8
0
100
AcDbLine
62
7
6
CONTINUOUS
10
94.9146615707
20
234.7143979489
11
95.2284366332
21
234.6375909269
0
LINE
5
37A
100
AcDbEntity
8
0
100
AcDbLine
62
7
6
CONTINUOUS
10
99.6158534728
20
234.5050282895
11
99.8791095458
21
234.3990540921
0
LINE
5
37B
100
AcDbEntity
8
0
100
AcDbLine
62
7
6
CONTINUOUS
10
97.5788394653
20
236.1665730893
11
97.3155824386
21
236.2725472867
0
LINE
5
37C
100
AcDbEntity
8
0
100
AcDbLine
62
7
6
CONTINUOUS
10
103.3117257797
20
236.0369229734
11
101.8465062820
21
236.8247571408
0
LINE
5
37D
100
AcDbEntity
8
0
100
AcDbLine
62
7
6
CONTINUOUS
10
101.8066541396
20
236.5437817990
11
103.0086166106
21
235.8619218290
0
LINE
5
37E
100
AcDbEntity
8
0
100
AcDbLine
62
7
6
CONTINUOUS
10
104.4923564636
20
235.8586774289
11
104.2796179496
21
235.9938168943
0
LINE
5
37F
100
AcDbEntity
8
0
100
AcDbLine
62
7
6
CONTINUOUS
10
104.0852076255
20
238.5472131192
11
104.2979461395
21
238.4120717466
0
LINE
5
380
100
AcDbEntity
8
0
100
AcDbLine
62
7
6
CONTINUOUS
10
104.1117755615
20
238.7345281064
11
103.9867893897
21
238.8343434751
0
LINE
5
381
100
AcDbEntity
8
0
100
AcDbLine
62
7
6
CONTINUOUS
10
110.7421552085
20
237.3015332639
11
110.5671552264
21
237.4504685819
0
LINE
5
382
100
AcDbEntity
8
0
100
AcDbLine
62
7
6
CONTINUOUS
10
109.2838218652
20
239.9823842466
11
109.0504885160
21
240.2057881772
0
LINE
5
383
100
AcDbEntity
8
0
100
AcDbLine
62
7
6
CONTINUOUS
10
89.1984826766
20
228.2993531644
11
89.3550683700
21
228.3415246427
0
LINE
5
384
100
AcDbEntity
8
0
100
AcDbLine
62
7
6
CONTINUOUS
10
89.2569467269
20
228.6004453122
11
89.0220700942
21
228.5371900022
0
LINE
5
385
100
AcDbEntity
8
0
100
AcDbLine
62
7
6
CONTINUOUS
10
88.2973195754
20
228.9534650266
11
88.0036889755
21
228.9151502073
0
LINE
5
386
100
AcDbEntity
8
0
100
AcDbLine
62
7
6
CONTINUOUS
10
94.6010801040
20
233.1575379789
11
94.7393495284
21
233.1513791501
0
LINE
5
387
100
AcDbEntity
8
0
100
AcDbLine
62
7
6
CONTINUOUS
10
95.6593429290
20
233.4245725095
11
95.9358836852
21
233.4122567594
0
LINE
5
388
100
AcDbEntity
8
0
100
AcDbLine
62
7
6
CONTINUOUS
10
95.8879834853
20
233.7285542905
11
95.7497131072
21
233.7347131192
0
LINE
5
389
100
AcDbEntity
8
0
100
AcDbLine
62
7
6
CONTINUOUS
10
99.8791095458
20
234.3990540921
11
100.2434026443
21
234.3514142453
0
LINE
5
38A
100
AcDbEntity
8
0
100
AcDbLine
62
7
6
CONTINUOUS
10
95.1433021270
20
235.0183797300
11
94.7790090286
21
235.0660195768
0
LINE
5
38B
100
AcDbEntity
8
0
100
AcDbLine
62
7
6
CONTINUOUS
10
97.3155824386
20
236.2725472867
11
96.9512902938
21
236.3201871335
0
LINE
5
38C
100
AcDbEntity
8
0
100
AcDbLine
62
7
6
CONTINUOUS
10
100.1077510558
20
234.7030358731
11
99.8817283355
21
234.7445187986
0
LINE
5
38D
100
AcDbEntity
8
0
100
AcDbLine
62
7
6
CONTINUOUS
10
97.0869418823
20
235.9685635984
11
97.3129646026
21
235.9270806729
0
LINE
5
38E
100
AcDbEntity
8
0
100
AcDbLine
62
7
6
CONTINUOUS
10
104.4525043212
20
235.5777020871
11
104.6785265647
21
235.5362210691
0
LINE
5
38F
100
AcDbEntity
8
0
100
AcDbLine
62
7
6
CONTINUOUS
10
99.8016378127
20
237.4499059140
11
99.5383817397
21
237.5558801114
0
LINE
5
390
100
AcDbEntity
8
0
100
AcDbLine
62
7
6
CONTINUOUS
10
104.1892477714
20
235.6836762845
11
104.4525043212
21
235.5777020871
0
LINE
5
391
100
AcDbEntity
8
0
100
AcDbLine
62
7
6
CONTINUOUS
10
103.5935026847
20
236.7155366361
11
103.8567592345
21
236.6095624387
0
LINE
5
392
100
AcDbEntity
8
0
100
AcDbLine
62
7
6
CONTINUOUS
10
103.9867893897
20
238.8343434751
11
103.8112851821
21
238.9049935758
0
LINE
5
393
100
AcDbEntity
8
0
100
AcDbLine
62
7
6
CONTINUOUS
10
110.4504885517
20
237.0036607206
11
110.6838218712
21
236.8547234952
0
LINE
5
394
100
AcDbEntity
8
0
100
AcDbLine
62
7
6
CONTINUOUS
10
114.7671550952
20
239.7589784085
11
114.5338219844
21
240.0568509519
0
LINE
5
395
100
AcDbEntity
8
0
100
AcDbLine
62
7
6
CONTINUOUS
10
98.1747771941
20
233.5010457456
11
97.8849517547
21
233.4197030484
0
LINE
5
396
100
AcDbEntity
8
0
100
AcDbLine
62
7
6
CONTINUOUS
10
100.3975755416
20
234.7843785703
11
100.1077510558
21
234.7030358731
0
LINE
5
397
100
AcDbEntity
8
0
100
AcDbLine
62
7
6
CONTINUOUS
10
95.6967689239
20
231.7264142453
11
95.9865943633
21
231.8077550351
0
LINE
5
398
100
AcDbEntity
8
0
100
AcDbLine
62
7
6
CONTINUOUS
10
114.0088218890
20
236.7802567899
11
114.3004886352
21
236.8547234952
0
LINE
5
399
100
AcDbEntity
8
0
100
AcDbLine
62
7
6
CONTINUOUS
10
111.2088218771
20
236.7802567899
11
111.5004885339
21
236.8547234952
0
LINE
5
39A
100
AcDbEntity
8
0
100
AcDbLine
62
7
6
CONTINUOUS
10
95.8509418212
20
232.1593785703
11
95.6116353713
21
232.1072030484
0
LINE
5
39B
100
AcDbEntity
8
0
100
AcDbLine
62
7
6
CONTINUOUS
10
95.4200355254
20
233.3723969876
11
95.6593429290
21
233.4245725095
0
LINE
5
39C
100
AcDbEntity
8
0
100
AcDbLine
62
7
6
CONTINUOUS
10
104.6785265647
20
235.5362210691
11
104.9178334914
21
235.5883965909
0
LINE
5
39D
100
AcDbEntity
8
0
100
AcDbLine
62
7
6
CONTINUOUS
10
95.0690271102
20
233.5136952817
11
94.8297197067
21
233.4615197599
0
LINE
5
39E
100
AcDbEntity
8
0
100
AcDbLine
62
7
6
CONTINUOUS
10
107.3588217937
20
236.7802567899
11
107.7088219367
21
236.7802567899
0
LINE
5
39F
100
AcDbEntity
8
0
100
AcDbLine
62
7
6
CONTINUOUS
10
109.1671551906
20
236.7802567899
11
109.5754884921
21
236.7802567899
0
LINE
5
3A0
100
AcDbEntity
8
0
100
AcDbLine
62
7
6
CONTINUOUS
10
110.9754885465
20
236.7802567899
11
111.2088218771
21
236.7802567899
0
LINE
5
3A1
100
AcDbEntity
8
0
100
AcDbLine
62
7
6
CONTINUOUS
10
112.6088219129
20
236.7802567899
11
114.0088218890
21
236.7802567899
0
LINE
5
3A2
100
AcDbEntity
8
0
100
AcDbLine
62
7
6
CONTINUOUS
10
114.0088218890
20
237.2270646512
11
112.9588219367
21
237.2270646512
0
LINE
5
3A3
100
AcDbEntity
8
0
100
AcDbLine
62
7
6
CONTINUOUS
10
111.2088218771
20
237.2270646512
11
110.9754885465
21
237.2270646512
0
LINE
5
3A4
100
AcDbEntity
8
0
100
AcDbLine
62
7
6
CONTINUOUS
10
104.7688972198
20
235.8463616788
11
104.4923564636
21
235.8586774289
0
LINE
5
3A5
100
AcDbEntity
8
0
100
AcDbLine
62
7
6
CONTINUOUS
10
99.5383817397
20
237.5558801114
11
99.1740886413
21
237.6035199582
0
LINE
5
3A6
100
AcDbEntity
8
0
100
AcDbLine
62
7
6
CONTINUOUS
10
99.3097402297
20
237.2518964231
11
99.5357629501
21
237.2104154050
0
LINE
5
3A7
100
AcDbEntity
8
0
100
AcDbLine
62
7
6
CONTINUOUS
10
103.8567592345
20
236.6095624387
11
104.0827819549
21
236.5680814206
0
LINE
5
3A8
100
AcDbEntity
8
0
100
AcDbLine
62
7
6
CONTINUOUS
10
103.9976479255
20
236.9488702237
11
103.7716256820
21
236.9903531491
0
LINE
5
3A9
100
AcDbEntity
8
0
100
AcDbLine
62
7
6
CONTINUOUS
10
103.8591849052
20
238.5886960447
11
104.0852076255
21
238.5472131192
0
LINE
5
3AA
100
AcDbEntity
8
0
100
AcDbLine
62
7
6
CONTINUOUS
10
110.6838218712
20
236.8547234952
11
110.9754885465
21
236.7802567899
0
LINE
5
3AB
100
AcDbEntity
8
0
100
AcDbLine
62
7
6
CONTINUOUS
10
110.9754885465
20
237.2270646512
11
110.7421552085
21
237.3015332639
0
LINE
5
3AC
100
AcDbEntity
8
0
100
AcDbLine
62
7
6
CONTINUOUS
10
108.8171552860
20
239.9079156339
11
108.9921552383
21
239.8334470212
0
LINE
5
3AD
100
AcDbEntity
8
0
100
AcDbLine
62
7
6
CONTINUOUS
10
114.2421552383
20
239.7589784085
11
114.4171551906
21
239.6100430906
0
LINE
5
3AE
100
AcDbEntity
8
0
100
AcDbLine
62
7
6
CONTINUOUS
10
94.7790090286
20
235.0660195768
11
94.4891854964
21
234.9846787870
0
LINE
5
3AF
100
AcDbEntity
8
0
100
AcDbLine
62
7
6
CONTINUOUS
10
96.7971173965
20
235.8872228086
11
97.0869418823
21
235.9685635984
0
LINE
5
3B0
100
AcDbEntity
8
0
100
AcDbLine
62
7
6
CONTINUOUS
10
99.0199157439
20
237.1705556333
11
99.3097402297
21
237.2518964231
0
LINE
5
3B1
100
AcDbEntity
8
0
100
AcDbLine
62
7
6
CONTINUOUS
10
104.0827819549
20
236.5680814206
11
104.3220884048
21
236.6202550351
0
LINE
5
3B2
100
AcDbEntity
8
0
100
AcDbLine
62
7
6
CONTINUOUS
10
94.6753541671
20
234.6622224271
11
94.9146615707
21
234.7143979489
0
LINE
5
3B3
100
AcDbEntity
8
0
100
AcDbLine
62
7
6
CONTINUOUS
10
104.2369548522
20
237.0010457456
11
103.9976479255
21
236.9488702237
0
LINE
5
3B4
100
AcDbEntity
8
0
100
AcDbLine
62
7
6
CONTINUOUS
10
103.6198784553
20
238.5365205228
11
103.8591849052
21
238.5886960447
0
LINE
5
3B5
100
AcDbEntity
8
0
100
AcDbLine
62
7
6
CONTINUOUS
10
103.6730148040
20
238.9111524045
11
103.4337083541
21
238.8589768827
0
LINE
5
3B6
100
AcDbEntity
8
0
100
AcDbLine
62
7
6
CONTINUOUS
10
107.7088219367
20
238.3440862119
11
108.7004884921
21
238.3440862119
0
LINE
5
3B7
100
AcDbEntity
8
0
100
AcDbLine
62
7
6
CONTINUOUS
10
108.8171552860
20
238.7908940732
11
107.7088219367
21
238.7908940732
0
LINE
5
3B8
100
AcDbEntity
8
0
100
AcDbLine
62
7
6
CONTINUOUS
10
112.9588219367
20
239.8334470212
11
114.0088218890
21
239.8334470212
0
LINE
5
3B9
100
AcDbEntity
8
0
100
AcDbLine
62
7
6
CONTINUOUS
10
107.7088219367
20
239.9079156339
11
108.8171552860
21
239.9079156339
0
LINE
5
3BA
100
AcDbEntity
8
0
100
AcDbLine
62
7
6
CONTINUOUS
10
114.0088218890
20
240.2802567899
11
112.6088219129
21
240.2802567899
0
LINE
5
3BB
100
AcDbEntity
8
0
100
AcDbLine
62
7
6
CONTINUOUS
10
112.1421552144
20
240.2802567899
11
111.7921551906
21
240.2802567899
0
LINE
5
3BC
100
AcDbEntity
8
0
100
AcDbLine
62
7
6
CONTINUOUS
10
110.3921552144
20
240.2802567899
11
110.0421551906
21
240.2802567899
0
LINE
5
3BD
100
AcDbEntity
8
0
100
AcDbLine
62
7
6
CONTINUOUS
10
108.7588218890
20
240.2802567899
11
107.3588217937
21
240.2802567899
0
LINE
5
3BE
100
AcDbEntity
8
0
100
AcDbLine
62
7
6
CONTINUOUS
10
103.8112851821
20
238.9049935758
11
103.6730148040
21
238.9111524045
0
LINE
5
3BF
100
AcDbEntity
8
0
100
AcDbLine
62
7
6
CONTINUOUS
10
109.0504885160
20
240.2057881772
11
108.7588218890
21
240.2802567899
0
LINE
5
3C0
100
AcDbEntity
8
0
100
AcDbLine
62
7
6
CONTINUOUS
10
114.3004886352
20
240.2057881772
11
114.0088218890
21
240.2802567899
0
LINE
5
3C1
100
AcDbEntity
8
0
100
AcDbLine
62
7
6
CONTINUOUS
10
114.0088218890
20
239.8334470212
11
114.2421552383
21
239.7589784085
0
LINE
5
3C2
100
AcDbEntity
8
0
100
AcDbLine
62
7
6
CONTINUOUS
10
114.5338219844
20
240.0568509519
11
114.3004886352
21
240.2057881772
0
LINE
5
3C3
100
AcDbEntity
8
0
100
AcDbLine
62
7
6
CONTINUOUS
10
112.5495556090
20
243.7891673885
11
132.8317775243
21
235.3879959961
0
LINE
5
3C4
100
AcDbEntity
8
0
100
AcDbLine
62
7
6
CONTINUOUS
10
134.9965619249
20
233.2232115955
11
143.3977333173
21
212.9409896801
0
LINE
5
3C5
100
AcDbEntity
8
0
100
AcDbLine
62
7
6
CONTINUOUS
10
143.3977333173
20
209.8795222212
11
134.7460625957
21
188.9925414278
0
LINE
5
3C6
100
AcDbEntity
8
0
100
AcDbLine
62
7
6
CONTINUOUS
10
143.3977333173
20
212.9409896801
11
143.5683296555
21
212.4364912640
0
LINE
5
3C7
100
AcDbEntity
8
0
100
AcDbLine
62
7
6
CONTINUOUS
10
128.0188218795
20
181.9102559507
11
128.5188218795
21
182.4102559507
0
LINE
5
3C8
100
AcDbEntity
8
0
100
AcDbLine
62
7
6
CONTINUOUS
10
278.3771303606
20
181.9102559507
11
277.8771303606
21
182.4102559507
0
LINE
5
3C9
100
AcDbEntity
8
0
100
AcDbLine
62
7
6
CONTINUOUS
10
278.3774274970
20
181.9102559507
11
312.3768332242
21
181.9102559507
0
LINE
5
3CA
100
AcDbEntity
8
0
100
AcDbLine
62
7
6
CONTINUOUS
10
277.8771303606
20
182.4102559507
11
312.8771303606
21
182.4102559507
0
LINE
5
3CB
100
AcDbEntity
8
DEFAULT_2
100
AcDbLine
62
8
6
HIDDEN
10
303.3771303606
20
183.4102559507
11
287.3771303606
21
183.4102559507
0
LINE
5
3CC
100
AcDbEntity
8
0
100
AcDbLine
62
7
6
CONTINUOUS
10
302.7431207204
20
188.0665665764
11
298.0437553906
21
188.0665665764
0
LINE
5
3CD
100
AcDbEntity
8
0
100
AcDbLine
62
7
6
CONTINUOUS
10
292.7105053306
20
188.0665665764
11
288.0111400008
21
188.0665665764
0
LINE
5
3CE
100
AcDbEntity
8
0
100
AcDbLine
62
7
6
CONTINUOUS
10
277.8771303606
20
182.4102559507
11
277.8771303606
21
188.9471909289
0
LINE
5
3CF
100
AcDbEntity
8
0
100
AcDbLine
62
7
6
CONTINUOUS
10
280.4078269655
20
191.9102559507
11
286.1641787605
21
192.8219725080
0
LINE
5
3D0
100
AcDbEntity
8
0
100
AcDbLine
62
7
6
CONTINUOUS
10
310.3464337557
20
191.9102559507
11
304.5930825305
21
192.8214972644
0
LINE
5
3D1
100
AcDbEntity
8
DEFAULT_2
100
AcDbLine
62
8
6
HIDDEN
10
287.3771303606
20
193.8380641768
11
287.3771303606
21
183.4102559507
0
LINE
5
3D2
100
AcDbEntity
8
0
100
AcDbLine
62
7
6
CONTINUOUS
10
288.3771303606
20
242.5936492492
11
288.3771303606
21
212.0516530215
0
LINE
5
3D3
100
AcDbEntity
8
0
100
AcDbLine
62
7
6
CONTINUOUS
10
288.3223784421
20
210.7712000612
11
286.2902999150
21
187.0530951014
0
LINE
5
3D4
100
AcDbEntity
8
DEFAULT_1
100
AcDbLine
62
2
6
CENTER
10
295.3771303606
20
249.7233967083
11
295.3771303606
21
178.9102559507
0
LINE
5
3D5
100
AcDbEntity
8
0
100
AcDbLine
62
7
6
CONTINUOUS
10
302.3771303606
20
216.0602560460
11
302.6771303606
21
216.0602560460
0
LINE
5
3D6
100
AcDbEntity
8
0
100
AcDbLine
62
7
6
CONTINUOUS
10
304.4639608061
20
187.0530951017
11
302.4318822791
21
210.7712000612
0
LINE
5
3D7
100
AcDbEntity
8
0
100
AcDbLine
62
7
6
CONTINUOUS
10
302.3771303606
20
212.0516530215
11
302.3771303606
21
242.5936492493
0
LINE
5
3D8
100
AcDbEntity
8
0
100
AcDbLine
62
7
6
CONTINUOUS
10
302.6771303606
20
240.2802567899
11
302.6771303606
21
231.7264142453
0
LINE
5
3D9
100
AcDbEntity
8
0
100
AcDbLine
62
7
6
CONTINUOUS
10
302.6771303606
20
228.9534650266
11
302.6771303606
21
222.9640422284
0
LINE
5
3DA
100
AcDbEntity
8
0
100
AcDbLine
62
7
6
CONTINUOUS
10
302.6771303606
20
221.5588221967
11
302.6771303606
21
216.0602560460
0
LINE
5
3DB
100
AcDbEntity
8
DEFAULT_2
100
AcDbLine
62
8
6
HIDDEN
10
303.3771303606
20
193.8185150592
11
303.3771303606
21
183.4102559507
0
LINE
5
3DC
100
AcDbEntity
8
0
100
AcDbLine
62
7
6
CONTINUOUS
10
302.3771303606
20
221.5588221967
11
302.6771303606
21
221.5588221967
0
LINE
5
3DD
100
AcDbEntity
8
0
100
AcDbLine
62
7
6
CONTINUOUS
10
302.3771303606
20
222.9640422284
11
302.6771303606
21
222.9640422284
0
LINE
5
3DE
100
AcDbEntity
8
DEFAULT_2
100
AcDbLine
62
8
6
HIDDEN
10
287.3771303606
20
183.4102559507
11
285.8771303606
21
181.9102559507
0
LINE
5
3DF
100
AcDbEntity
8
0
100
AcDbLine
62
7
6
CONTINUOUS
10
302.3771303606
20
228.9151502073
11
302.6771303606
21
228.9151502073
0
LINE
5
3E0
100
AcDbEntity
8
0
100
AcDbLine
62
7
6
CONTINUOUS
10
302.3771303606
20
228.9534650266
11
302.6771303606
21
228.9534650266
0
LINE
5
3E1
100
AcDbEntity
8
0
100
AcDbLine
62
7
6
CONTINUOUS
10
312.8771303606
20
182.4102559507
11
312.8771303606
21
188.9471909289
0
LINE
5
3E2
100
AcDbEntity
8
0
100
AcDbLine
62
7
6
CONTINUOUS
10
302.3771303606
20
240.2802567899
11
302.6771303606
21
240.2802567899
0
LINE
5
3E3
100
AcDbEntity
8
0
100
AcDbLine
62
7
6
CONTINUOUS
10
300.8771303606
20
244.0936492584
11
289.8771303606
21
244.0936492584
0
LINE
5
3E4
100
AcDbEntity
8
0
100
AcDbLine
62
7
6
CONTINUOUS
10
312.3771303606
20
181.9102559507
11
312.8771303606
21
182.4102559507
0
LINE
5
3E5
100
AcDbEntity
8
0
100
AcDbLine
62
7
6
CONTINUOUS
10
78.3354285718
20
107.1004066871
11
78.3354285718
21
118.1265107708
0
LINE
5
3E6
100
AcDbEntity
8
0
100
AcDbLine
62
7
6
CONTINUOUS
10
82.7673074447
20
105.6134587287
11
82.7673074447
21
105.3134587287
0
LINE
5
3E7
100
AcDbEntity
8
0
100
AcDbLine
62
7
6
CONTINUOUS
10
90.3932782851
20
105.6134587287
11
90.3932782851
21
105.3134587287
0
LINE
5
3E8
100
AcDbEntity
8
0
100
AcDbLine
62
7
6
CONTINUOUS
10
93.8910142623
20
105.6134587287
11
93.8910142623
21
105.3134587287
0
LINE
5
3E9
100
AcDbEntity
8
0
100
AcDbLine
62
7
6
CONTINUOUS
10
93.9308664047
20
105.6134587287
11
93.9308664047
21
105.3134587287
0
LINE
5
3EA
100
AcDbEntity
8
0
100
AcDbLine
62
7
6
CONTINUOUS
10
142.4668669118
20
105.6035478467
11
142.4661913352
21
105.6033685018
0
LINE
5
3EB
100
AcDbEntity
8
0
100
AcDbLine
62
7
6
CONTINUOUS
10
79.5707840213
20
105.6035472629
11
79.5722618023
21
105.6031554258
0
LINE
5
3EC
100
AcDbEntity
8
0
100
AcDbLine
62
7
6
CONTINUOUS
10
142.3157438760
20
105.5680798873
11
133.6640731544
21
103.7785614904
0
LINE
5
3ED
100
AcDbEntity
8
0
100
AcDbLine
62
7
6
CONTINUOUS
10
88.3735706046
20
103.7785614904
11
79.7218998832
21
105.5680798873
0
LINE
5
3EE
100
AcDbEntity
8
0
100
AcDbLine
62
7
6
CONTINUOUS
10
133.3602432969
20
103.7474683689
11
132.2789296998
21
103.7474683689
0
LINE
5
3EF
100
AcDbEntity
8
0
100
AcDbLine
62
7
6
CONTINUOUS
10
89.7587140242
20
103.7474683689
11
88.6774004621
21
103.7474683689
0
LINE
5
3F0
100
AcDbEntity
8
0
100
AcDbLine
62
7
6
CONTINUOUS
10
114.9421552860
20
105.3134587287
11
112.6088219129
21
105.3134587287
0
LINE
5
3F1
100
AcDbEntity
8
0
100
AcDbLine
62
7
6
CONTINUOUS
10
112.1421552144
20
105.3134587287
11
110.0421551906
21
105.3134587287
0
LINE
5
3F2
100
AcDbEntity
8
0
100
AcDbLine
62
7
6
CONTINUOUS
10
109.5754884921
20
105.3134587287
11
107.3588217937
21
105.3134587287
0
LINE
5
3F3
100
AcDbEntity
8
0
100
AcDbLine
62
7
6
CONTINUOUS
10
105.5771877013
20
105.3134587287
11
93.8910142623
21
105.3134587287
0
LINE
5
3F4
100
AcDbEntity
8
0
100
AcDbLine
62
7
6
CONTINUOUS
10
90.3932782851
20
105.3134587287
11
82.7673074447
21
105.3134587287
0
LINE
5
3F5
100
AcDbEntity
8
0
100
AcDbLine
62
7
6
CONTINUOUS
10
105.5665218078
20
105.6134587287
11
105.5665218078
21
105.3134587287
0
LINE
5
3F6
100
AcDbEntity
8
0
100
AcDbLine
62
7
6
CONTINUOUS
10
105.5771877013
20
105.6134587287
11
105.5771877013
21
105.3134587287
0
LINE
5
3F7
100
AcDbEntity
8
0
100
AcDbLine
62
7
6
CONTINUOUS
10
79.9191070291
20
105.6134587287
11
142.1185367299
21
105.6134587287
0
LINE
5
3F8
100
AcDbEntity
8
0
100
AcDbLine
62
7
6
CONTINUOUS
10
107.3588217937
20
105.6134587287
11
107.3588217937
21
105.3134587287
0
LINE
5
3F9
100
AcDbEntity
8
0
100
AcDbLine
62
7
6
CONTINUOUS
10
109.5754884921
20
105.6134587287
11
109.5754884921
21
105.3134587287
0
LINE
5
3FA
100
AcDbEntity
8
0
100
AcDbLine
62
7
6
CONTINUOUS
10
110.0421551906
20
105.6134587287
11
110.0421551906
21
105.3134587287
0
LINE
5
3FB
100
AcDbEntity
8
DEFAULT_1
100
AcDbLine
62
2
6
CENTER
10
111.0188218795
20
112.6134587287
11
111.0188218795
21
92.1134587287
0
LINE
5
3FC
100
AcDbEntity
8
DEFAULT_1
100
AcDbLine
62
2
6
CENTER
10
111.0188218795
20
112.6134587287
11
111.0188218795
21
133.1134587287
0
LINE
5
3FD
100
AcDbEntity
8
DEFAULT_1
100
AcDbLine
62
2
6
CENTER
10
111.0188218795
20
112.6134587287
11
90.5188218795
21
112.6134587287
0
LINE
5
3FE
100
AcDbEntity
8
DEFAULT_1
100
AcDbLine
62
2
6
CENTER
10
111.0188218795
20
112.6134587287
11
131.5188218795
21
112.6134587287
0
LINE
5
3FF
100
AcDbEntity
8
0
100
AcDbLine
62
7
6
CONTINUOUS
10
112.1421552144
20
105.6134587287
11
112.1421552144
21
105.3134587287
0
LINE
5
400
100
AcDbEntity
8
0
100
AcDbLine
62
7
6
CONTINUOUS
10
112.6088219129
20
105.6134587287
11
112.6088219129
21
105.3134587287
0
LINE
5
401
100
AcDbEntity
8
0
100
AcDbLine
62
7
6
CONTINUOUS
10
114.9421552860
20
105.6134587287
11
114.9421552860
21
105.3134587287
0
LINE
5
402
100
AcDbEntity
8
0
100
AcDbLine
62
7
6
CONTINUOUS
10
142.1185367299
20
119.6134587287
11
79.9191070291
21
119.6134587287
0
LINE
5
403
100
AcDbEntity
8
0
100
AcDbLine
62
7
6
CONTINUOUS
10
88.6774004621
20
121.4794490885
11
89.7587140592
21
121.4794490885
0
LINE
5
404
100
AcDbEntity
8
0
100
AcDbLine
62
7
6
CONTINUOUS
10
132.2789297348
20
121.4794490885
11
133.3602432969
21
121.4794490885
0
LINE
5
405
100
AcDbEntity
8
0
100
AcDbLine
62
7
6
CONTINUOUS
10
79.5707767702
20
119.6233695917
11
79.5714524221
21
119.6235489566
0
LINE
5
406
100
AcDbEntity
8
0
100
AcDbLine
62
7
6
CONTINUOUS
10
79.7218998830
20
119.6588375701
11
88.3735706046
21
121.4483559670
0
LINE
5
407
100
AcDbEntity
8
0
100
AcDbLine
62
7
6
CONTINUOUS
10
133.6640731544
20
121.4483559670
11
142.3157438758
21
119.6588375701
0
LINE
5
408
100
AcDbEntity
8
0
100
AcDbLine
62
7
6
CONTINUOUS
10
142.4668597335
20
119.6233704474
11
142.4654078201
21
119.6237554393
0
LINE
5
409
100
AcDbEntity
8
0
100
AcDbLine
62
7
6
CONTINUOUS
10
143.7022151873
20
107.1004066630
11
143.7022151873
21
118.1265101014
0
ARC
5
40A
100
AcDbEntity
8
0
100
AcDbCircle
62
7
6
CONTINUOUS
10
88.6781525451
20
189.5647508873
40
1.5000000000
100
AcDbArc
50
202.5000000001
51
268.0789722427
0
ARC
5
40B
100
AcDbEntity
8
0
100
AcDbCircle
62
7
6
CONTINUOUS
10
133.3594912139
20
189.5647508873
40
1.5000000000
100
AcDbArc
50
271.4047110510
51
337.5000000000
0
ARC
5
40C
100
AcDbEntity
8
0
100
AcDbCircle
62
7
6
CONTINUOUS
10
88.5188218795
20
183.0665665764
40
5.0000000000
100
AcDbArc
50
0.0000000000
51
88.7506915331
0
ARC
5
40D
100
AcDbEntity
8
0
100
AcDbCircle
62
7
6
CONTINUOUS
10
133.5188218795
20
183.0665665764
40
5.0000000000
100
AcDbArc
50
91.2493084669
51
180.0000000000
0
ARC
5
40E
100
AcDbEntity
8
0
100
AcDbCircle
62
7
6
CONTINUOUS
10
111.0188218795
20
211.4102559507
40
17.5000000000
100
AcDbArc
50
280.5289452232
51
259.4710390278
0
ARC
5
40F
100
AcDbEntity
8
0
100
AcDbCircle
62
7
6
CONTINUOUS
10
131.3010437949
20
231.6924778660
40
4.0000000000
100
AcDbArc
50
22.5000000000
51
67.5000000000
0
ARC
5
410
100
AcDbEntity
8
0
100
AcDbCircle
62
7
6
CONTINUOUS
10
111.0188218795
20
240.0936492584
40
4.0000000000
100
AcDbArc
50
67.5000000000
51
112.5000000000
0
ARC
5
411
100
AcDbEntity
8
0
100
AcDbCircle
62
7
6
CONTINUOUS
10
90.7365999642
20
231.6924778660
40
4.0000000000
100
AcDbArc
50
112.5000000000
51
157.5000000000
0
ARC
5
412
100
AcDbEntity
8
0
100
AcDbCircle
62
7
6
CONTINUOUS
10
82.3354285718
20
211.4102559507
40
4.0000000000
100
AcDbArc
50
157.5000000000
51
202.5000000000
0
ARC
5
413
100
AcDbEntity
8
0
100
AcDbCircle
62
7
6
CONTINUOUS
10
139.7022151873
20
211.4102559507
40
4.0000000000
100
AcDbArc
50
337.5000000000
51
22.5000000000
0
ARC
5
414
100
AcDbEntity
8
0
100
AcDbCircle
62
7
6
CONTINUOUS
10
88.6773619590
20
189.5666595312
40
1.5000000000
100
AcDbArc
50
202.5038431565
51
270.0014706212
0
ARC
5
415
100
AcDbEntity
8
0
100
AcDbCircle
62
7
6
CONTINUOUS
10
133.3602432969
20
189.5665665764
40
1.5000000000
100
AcDbArc
50
270.0000000000
51
337.5000000000
0
ARC
5
416
100
AcDbEntity
8
DEFAULT_2
100
AcDbCircle
62
8
6
HIDDEN
10
295.3771303606
20
235.9102559507
40
7.0000000000
100
AcDbArc
50
180.0000000000
51
360.0000000000
0
ARC
5
417
100
AcDbEntity
8
0
100
AcDbCircle
62
7
6
CONTINUOUS
10
289.8771303606
20
242.5936492584
40
1.5000000000
100
AcDbArc
50
90.0000000000
51
180.0000000000
0
ARC
5
418
100
AcDbEntity
8
0
100
AcDbCircle
62
7
6
CONTINUOUS
10
300.8771303606
20
242.5936492584
40
1.5000000000
100
AcDbArc
50
0.0000000000
51
90.0000000000
0
ARC
5
419
100
AcDbEntity
8
0
100
AcDbCircle
62
7
6
CONTINUOUS
10
280.8771303606
20
188.9471909289
40
3.0000000000
100
AcDbArc
50
99.0000000000
51
180.0000000000
0
ARC
5
41A
100
AcDbEntity
8
0
100
AcDbCircle
62
7
6
CONTINUOUS
10
309.8771303606
20
188.9471909289
40
3.0000000000
100
AcDbArc
50
0.0000000000
51
81.0000000000
0
ARC
5
41B
100
AcDbEntity
8
0
100
AcDbCircle
62
7
6
CONTINUOUS
10
317.3771303606
20
212.0516530215
40
15.0000000000
100
AcDbArc
50
180.0000000000
51
184.8969296235
0
ARC
5
41C
100
AcDbEntity
8
0
100
AcDbCircle
62
7
6
CONTINUOUS
10
273.3771303606
20
212.0516530215
40
15.0000000000
100
AcDbArc
50
355.1030703765
51
360.0000000000
0
ARC
5
41D
100
AcDbEntity
8
0
100
AcDbCircle
62
7
6
CONTINUOUS
10
288.0111400008
20
189.5665665764
40
1.5000000000
100
AcDbArc
50
175.1030703765
51
270.0000000000
0
ARC
5
41E
100
AcDbEntity
8
0
100
AcDbCircle
62
7
6
CONTINUOUS
10
302.7431207204
20
189.5665665764
40
1.5000000000
100
AcDbArc
50
270.0000000000
51
4.8969296235
0
ARC
5
41F
100
AcDbEntity
8
DEFAULT_2
100
AcDbCircle
62
8
6
HIDDEN
10
111.0188218795
20
112.6134587287
40
8.0000000000
100
AcDbArc
50
294.1037413370
51
61.0753339911
0
ARC
5
420
100
AcDbEntity
8
DEFAULT_2
100
AcDbCircle
62
8
6
HIDDEN
10
111.0188218795
20
112.6134587287
40
8.0000000000
100
AcDbArc
50
242.7563959174
51
245.8962427511
0
ARC
5
421
100
AcDbEntity
8
DEFAULT_2
100
AcDbCircle
62
8
6
HIDDEN
10
111.0188218795
20
112.6134587287
40
8.0000000000
100
AcDbArc
50
118.9246128535
51
241.0753869077
0
ARC
5
422
100
AcDbEntity
8
0
100
AcDbCircle
62
7
6
CONTINUOUS
10
111.0188218795
20
112.6134587287
40
8.0000000000
100
AcDbArc
50
241.0753869077
51
242.7563959174
0
ARC
5
423
100
AcDbEntity
8
0
100
AcDbCircle
62
7
6
CONTINUOUS
10
111.0188218795
20
112.6134587287
40
8.0000000000
100
AcDbArc
50
61.0753339911
51
118.9246128535
0
ARC
5
424
100
AcDbEntity
8
0
100
AcDbCircle
62
7
6
CONTINUOUS
10
111.0188218795
20
112.6134587287
40
8.0000000000
100
AcDbArc
50
245.8962427511
51
294.1037413370
0
ARC
5
425
100
AcDbEntity
8
0
100
AcDbCircle
62
7
6
CONTINUOUS
10
111.0188218795
20
112.6134587287
40
17.5000000000
100
AcDbArc
50
212.4565766901
51
327.5434233099
0
ARC
5
426
100
AcDbEntity
8
0
100
AcDbCircle
62
7
6
CONTINUOUS
10
111.0188218795
20
112.6134587287
40
17.5000000000
100
AcDbArc
50
32.4565766901
51
147.5434233099
0
SPLINE
5
427
100
AcDbEntity
8
0
100
AcDbSpline
62
7
6
CONTINUOUS
70
0
71
3
72
8
73
4
74
2
42
0.0000001000
43
0.0000001000
44
0.0000000001
40
0.0000000000
40
0.0000000000
40
0.0000000000
40
0.0000000000
40
1.0000000000
40
1.0000000000
40
1.0000000000
40
1.0000000000
10
133.3923065423
20
188.0653780419
30
0.0000000000
10
133.3923065423
20
188.0653780427
30
0.0000000000
10
133.3870561924
20
188.0656697938
30
0.0000000000
10
133.3804580221
20
188.0659641994
30
0.0000000000
11
133.3923065423
21
188.0653780419
31
0.0000000000
11
133.3804580221
21
188.0659641994
31
0.0000000000
0
SPLINE
5
428
100
AcDbEntity
8
0
100
AcDbSpline
62
7
6
CONTINUOUS
70
0
71
3
72
9
73
5
74
3
42
0.0000001000
43
0.0000001000
44
0.0000000001
40
0.0000000000
40
0.0000000000
40
0.0000000000
40
0.0000000000
40
0.6685848052
40
1.0000000000
40
1.0000000000
40
1.0000000000
40
1.0000000000
10
133.3602440811
20
188.0665665764
30
0.0000000000
10
133.3709389056
20
188.0665653906
30
0.0000000000
10
133.4028984054
20
188.0647894748
30
0.0000000000
10
133.3870561926
20
188.0656697938
30
0.0000000000
10
133.3804580221
20
188.0659641994
30
0.0000000000
11
133.3602440811
21
188.0665665764
31
0.0000000000
11
133.3923065423
21
188.0653780419
31
0.0000000000
11
133.3804580221
21
188.0659641994
31
0.0000000000
0
SPLINE
5
429
100
AcDbEntity
8
0
100
AcDbSpline
62
7
6
CONTINUOUS
70
0
71
3
72
13
73
9
74
7
42
0.0000001000
43
0.0000001000
44
0.0000000001
40
0.0000000000
40
0.0000000000
40
0.0000000000
40
0.0000000000
40
0.1672700349
40
0.3346077742
40
0.5003712672
40
0.6659025185
40
0.8329285894
40
1.0000000000
40
1.0000000000
40
1.0000000000
40
1.0000000000
10
114.2166378870
20
194.2049087887
30
0.0000000000
10
113.8629996535
20
194.1391810080
30
0.0000000000
10
113.1557652104
20
194.0065524960
30
0.0000000000
10
112.0895130222
20
193.8564415592
30
0.0000000000
10
111.0169167376
20
193.7993673497
30
0.0000000000
10
109.9450215921
20
193.8568165621
30
0.0000000000
10
108.8803754302
20
194.0068337570
30
0.0000000000
10
108.1742193849
20
194.1392598481
30
0.0000000000
10
107.8210010961
20
194.2049096775
30
0.0000000000
11
114.2166378870
21
194.2049087887
31
0.0000000000
11
113.1544617336
21
194.0146376890
31
0.0000000000
11
112.0844642161
21
193.8715663768
31
0.0000000000
11
111.0164222806
21
193.8183959541
31
0.0000000000
11
109.9498963462
21
193.8718847190
31
0.0000000000
11
108.8819125979
21
194.0148456821
31
0.0000000000
11
107.8210010961
21
194.2049096775
31
0.0000000000
0
SPLINE
5
42A
100
AcDbEntity
8
0
100
AcDbSpline
62
7
6
CONTINUOUS
70
0
71
3
72
8
73
4
74
2
42
0.0000001000
43
0.0000001000
44
0.0000000001
40
0.0000000000
40
0.0000000000
40
0.0000000000
40
0.0000000000
40
1.0000000000
40
1.0000000000
40
1.0000000000
40
1.0000000000
10
88.6773996734
20
188.0665665764
30
0.0000000000
10
88.6667048473
20
188.0665653902
30
0.0000000000
10
88.6453372169
20
188.0653780402
30
0.0000000000
10
88.6453372167
20
188.0653780419
30
0.0000000000
11
88.6773996734
21
188.0665665764
31
0.0000000000
11
88.6453372167
21
188.0653780419
31
0.0000000000
0
SPLINE
5
42B
100
AcDbEntity
8
0
100
AcDbSpline
62
7
6
CONTINUOUS
70
0
71
3
72
8
73
4
74
2
42
0.0000001000
43
0.0000001000
44
0.0000000001
40
0.0000000000
40
0.0000000000
40
0.0000000000
40
0.0000000000
40
1.0000000000
40
1.0000000000
40
1.0000000000
40
1.0000000000
10
286.7182229743
20
193.1043861176
30
0.0000000000
10
286.6880631344
20
193.0740946066
30
0.0000000000
10
286.6558642076
20
193.0456865216
30
0.0000000000
10
286.6219581404
20
193.0194249496
30
0.0000000000
11
286.7182229743
21
193.1043861176
31
0.0000000000
11
286.6219581404
21
193.0194249496
31
0.0000000000
0
SPLINE
5
42C
100
AcDbEntity
8
0
100
AcDbSpline
62
7
6
CONTINUOUS
70
0
71
3
72
10
73
6
74
4
42
0.0000001000
43
0.0000001000
44
0.0000000001
40
0.0000000000
40
0.0000000000
40
0.0000000000
40
0.0000000000
40
0.2565621726
40
0.7722537196
40
1.0000000000
40
1.0000000000
40
1.0000000000
40
1.0000000000
10
286.6219581404
20
193.0194249496
30
0.0000000000
10
286.5880126970
20
192.9931328791
30
0.0000000000
10
286.4806862582
20
192.9204696181
30
0.0000000000
10
286.3255412138
20
192.8547160426
30
0.0000000000
10
286.2036621216
20
192.8282559822
30
0.0000000000
10
286.1660071251
20
192.8222931372
30
0.0000000000
11
286.6219581404
21
193.0194249496
31
0.0000000000
11
286.5153215912
21
192.9472672476
31
0.0000000000
11
286.2777219086
21
192.8465719978
31
0.0000000000
11
286.1660071251
21
192.8222931372
31
0.0000000000
0
SPLINE
5
42D
100
AcDbEntity
8
0
100
AcDbSpline
62
7
6
CONTINUOUS
70
0
71
3
72
9
73
5
74
3
42
0.0000001000
43
0.0000001000
44
0.0000000001
40
0.0000000000
40
0.0000000000
40
0.0000000000
40
0.0000000000
40
0.7298887710
40
1.0000000000
40
1.0000000000
40
1.0000000000
40
1.0000000000
10
286.7290234425
20
193.1155472509
30
0.0000000000
10
286.7283141313
20
193.1147630675
30
0.0000000000
10
286.7273169987
20
193.1137007082
30
0.0000000000
10
286.7260081748
20
193.1123369017
30
0.0000000000
10
286.7256584007
20
193.1119734004
30
0.0000000000
11
286.7290234425
21
193.1155472509
31
0.0000000000
11
286.7266924898
21
193.1130516670
31
0.0000000000
11
286.7256584007
21
193.1119734004
31
0.0000000000
0
SPLINE
5
42E
100
AcDbEntity
8
0
100
AcDbSpline
62
7
6
CONTINUOUS
70
0
71
3
72
9
73
5
74
3
42
0.0000001000
43
0.0000001000
44
0.0000000001
40
0.0000000000
40
0.0000000000
40
0.0000000000
40
0.0000000000
40
0.7876598387
40
1.0000000000
40
1.0000000000
40
1.0000000000
40
1.0000000000
10
286.7256584007
20
193.1119734004
30
0.0000000000
10
286.7246638706
20
193.1109398393
30
0.0000000000
10
286.7234397619
20
193.1096777175
30
0.0000000000
10
286.7232462647
20
193.1094748227
30
0.0000000000
10
286.7232466778
20
193.1094744172
30
0.0000000000
11
286.7256584007
21
193.1119734004
31
0.0000000000
11
286.7233749077
21
193.1096087469
31
0.0000000000
11
286.7232466778
21
193.1094744172
31
0.0000000000
0
SPLINE
5
42F
100
AcDbEntity
8
0
100
AcDbSpline
62
7
6
CONTINUOUS
70
0
71
3
72
12
73
8
74
6
42
0.0000001000
43
0.0000001000
44
0.0000000001
40
0.0000000000
40
0.0000000000
40
0.0000000000
40
0.0000000000
40
0.1263588396
40
0.3846018762
40
0.6359959121
40
0.8804231264
40
1.0000000000
40
1.0000000000
40
1.0000000000
40
1.0000000000
10
286.8330015694
20
193.3874048494
30
0.0000000000
10
286.8327929088
20
193.3851135134
30
0.0000000000
10
286.8321172615
20
193.3781430188
30
0.0000000000
10
286.8307955752
20
193.3666372398
30
0.0000000000
10
286.8289062112
20
193.3530364597
30
0.0000000000
10
286.8271073918
20
193.3419755141
30
0.0000000000
10
286.8259314070
20
193.3354525750
30
0.0000000000
10
286.8255329805
20
193.3333120170
30
0.0000000000
11
286.8330015694
21
193.3874048494
31
0.0000000000
11
286.8323356059
21
193.3805346460
31
0.0000000000
11
286.8307254089
21
193.3665204445
31
0.0000000000
11
286.8288355467
21
193.3529188306
31
0.0000000000
11
286.8266919530
21
193.3397403095
31
0.0000000000
11
286.8255329805
21
193.3333120170
31
0.0000000000
0
SPLINE
5
430
100
AcDbEntity
8
0
100
AcDbSpline
62
7
6
CONTINUOUS
70
0
71
3
72
14
73
10
74
8
42
0.0000001000
43
0.0000001000
44
0.0000000001
40
0.0000000000
40
0.0000000000
40
0.0000000000
40
0.0000000000
40
0.0945532677
40
0.2794090442
40
0.4586151859
40
0.6322178295
40
0.8002911054
40
0.9629343268
40
1.0000000000
40
1.0000000000
40
1.0000000000
40
1.0000000000
10
286.8255329805
20
193.3333120170
30
0.0000000000
10
286.8251404250
20
193.3312030016
30
0.0000000000
10
286.8239456662
20
193.3249772375
30
0.0000000000
10
286.8218157776
20
193.3147918012
30
0.0000000000
10
286.8190597899
20
193.3029078926
30
0.0000000000
10
286.8161456682
20
193.2914543306
30
0.0000000000
10
286.8130943107
20
193.2804260498
30
0.0000000000
10
286.8107061049
20
193.2724304163
30
0.0000000000
10
286.8093556318
20
193.2681053361
30
0.0000000000
10
286.8091031360
20
193.2673031901
30
0.0000000000
11
286.8255329805
21
193.3333120170
31
0.0000000000
11
286.8243200217
21
193.3269916779
31
0.0000000000
11
286.8217443285
21
193.3146763037
31
0.0000000000
11
286.8189883995
21
193.3027944209
31
0.0000000000
11
286.8160745241
21
193.2913434300
31
0.0000000000
11
286.8130236098
21
193.2803182003
31
0.0000000000
11
286.8098550751
21
193.2697113654
31
0.0000000000
11
286.8091031360
21
193.2673031901
31
0.0000000000
0
SPLINE
5
431
100
AcDbEntity
8
0
100
AcDbSpline
62
7
6
CONTINUOUS
70
0
71
3
72
8
73
4
74
2
42
0.0000001000
43
0.0000001000
44
0.0000000001
40
0.0000000000
40
0.0000000000
40
0.0000000000
40
0.0000000000
40
1.0000000000
40
1.0000000000
40
1.0000000000
40
1.0000000000
10
286.8091031360
20
193.2673031901
30
0.0000000000
10
286.8088152793
20
193.2663887072
30
0.0000000000
10
286.8085250181
20
193.2654749813
30
0.0000000000
10
286.8082323499
20
193.2645620271
30
0.0000000000
11
286.8091031360
21
193.2673031901
31
0.0000000000
11
286.8082323499
21
193.2645620271
31
0.0000000000
0
SPLINE
5
432
100
AcDbEntity
8
0
100
AcDbSpline
62
7
6
CONTINUOUS
70
0
71
3
72
8
73
4
74
2
42
0.0000001000
43
0.0000001000
44
0.0000000001
40
0.0000000000
40
0.0000000000
40
0.0000000000
40
0.0000000000
40
1.0000000000
40
1.0000000000
40
1.0000000000
40
1.0000000000
10
286.8332738615
20
193.3905464883
30
0.0000000000
10
286.8296860349
20
193.3488739342
30
0.0000000000
10
286.8216264802
20
193.3071729326
30
0.0000000000
10
286.8089342939
20
193.2669984041
30
0.0000000000
11
286.8332738615
21
193.3905464883
31
0.0000000000
11
286.8089342939
21
193.2669984041
31
0.0000000000
0
SPLINE
5
433
100
AcDbEntity
8
0
100
AcDbSpline
62
7
6
CONTINUOUS
70
0
71
3
72
10
73
6
74
4
42
0.0000001000
43
0.0000001000
44
0.0000000001
40
0.0000000000
40
0.0000000000
40
0.0000000000
40
0.0000000000
40
0.5350391254
40
0.8990546413
40
1.0000000000
40
1.0000000000
40
1.0000000000
40
1.0000000000
10
286.8089342939
20
193.2669984041
30
0.0000000000
10
286.7987815299
20
193.2348618997
30
0.0000000000
10
286.7767402161
20
193.1825025160
30
0.0000000000
10
286.7426556988
20
193.1298314363
30
0.0000000000
10
286.7227569099
20
193.1087697980
30
0.0000000000
10
286.7182229743
20
193.1043861176
30
0.0000000000
11
286.8089342939
21
193.2669984041
31
0.0000000000
11
286.7695007164
21
193.1743150385
31
0.0000000000
11
286.7312062315
21
193.1180765686
31
0.0000000000
11
286.7182229743
21
193.1043861176
31
0.0000000000
0
SPLINE
5
434
100
AcDbEntity
8
0
100
AcDbSpline
62
7
6
CONTINUOUS
70
0
71
3
72
10
73
6
74
4
42
0.0000001000
43
0.0000001000
44
0.0000000001
40
0.0000000000
40
0.0000000000
40
0.0000000000
40
0.0000000000
40
0.0892640322
40
0.6968971788
40
1.0000000000
40
1.0000000000
40
1.0000000000
40
1.0000000000
10
304.5882605857
20
192.8222162267
30
0.0000000000
10
304.5738459119
20
192.8244975496
30
0.0000000000
10
304.4617028531
20
192.8447728146
30
0.0000000000
10
304.3063873818
20
192.9013790942
30
0.0000000000
10
304.1807466921
20
192.9826547727
30
0.0000000000
10
304.1411889685
20
193.0125925438
30
0.0000000000
11
304.5882605857
21
192.8222162267
31
0.0000000000
11
304.5451816480
21
192.8300061477
31
0.0000000000
11
304.2661271055
21
192.9318480492
31
0.0000000000
11
304.1411889685
21
193.0125925438
31
0.0000000000
0
SPLINE
5
435
100
AcDbEntity
8
0
100
AcDbSpline
62
7
6
CONTINUOUS
70
0
71
3
72
8
73
4
74
2
42
0.0000001000
43
0.0000001000
44
0.0000000001
40
0.0000000000
40
0.0000000000
40
0.0000000000
40
0.0000000000
40
1.0000000000
40
1.0000000000
40
1.0000000000
40
1.0000000000
10
304.1411889685
20
193.0125925438
30
0.0000000000
10
304.1015721265
20
193.0425750564
30
0.0000000000
10
304.0642188977
20
193.0754545512
30
0.0000000000
10
304.0296371736
20
193.1108254243
30
0.0000000000
11
304.1411889685
21
193.0125925438
31
0.0000000000
11
304.0296371736
21
193.1108254243
31
0.0000000000
0
SPLINE
5
436
100
AcDbEntity
8
0
100
AcDbSpline
62
7
6
CONTINUOUS
70
0
71
3
72
8
73
4
74
2
42
0.0000001000
43
0.0000001000
44
0.0000000001
40
0.0000000000
40
0.0000000000
40
0.0000000000
40
0.0000000000
40
1.0000000000
40
1.0000000000
40
1.0000000000
40
1.0000000000
10
304.0199841538
20
193.1217477825
30
0.0000000000
10
304.0126514253
20
193.1305116005
30
0.0000000000
10
304.0058719904
20
193.1397220420
30
0.0000000000
10
303.9995729129
20
193.1492780545
30
0.0000000000
11
304.0199841538
21
193.1217477825
31
0.0000000000
11
303.9995729129
21
193.1492780545
31
0.0000000000
0
SPLINE
5
437
100
AcDbEntity
8
0
100
AcDbSpline
62
7
6
CONTINUOUS
70
0
71
3
72
8
73
4
74
2
42
0.0000001000
43
0.0000001000
44
0.0000000001
40
0.0000000000
40
0.0000000000
40
0.0000000000
40
0.0000000000
40
1.0000000000
40
1.0000000000
40
1.0000000000
40
1.0000000000
10
303.9970197448
20
193.1532108651
30
0.0000000000
10
303.9861937905
20
193.1701421813
30
0.0000000000
10
303.9768163771
20
193.1880951601
30
0.0000000000
10
303.9684933757
20
193.2065237397
30
0.0000000000
11
303.9970197448
21
193.1532108651
31
0.0000000000
11
303.9684933757
21
193.2065237397
31
0.0000000000
0
SPLINE
5
438
100
AcDbEntity
8
0
100
AcDbSpline
62
7
6
CONTINUOUS
70
0
71
3
72
8
73
4
74
2
42
0.0000001000
43
0.0000001000
44
0.0000000001
40
0.0000000000
40
0.0000000000
40
0.0000000000
40
0.0000000000
40
1.0000000000
40
1.0000000000
40
1.0000000000
40
1.0000000000
10
303.9684933757
20
193.2065237397
30
0.0000000000
10
303.9639252054
20
193.2166384668
30
0.0000000000
10
303.9596738898
20
193.2268956469
30
0.0000000000
10
303.9557386719
20
193.2372723457
30
0.0000000000
11
303.9684933757
21
193.2065237397
31
0.0000000000
11
303.9557386719
21
193.2372723457
31
0.0000000000
0
SPLINE
5
439
100
AcDbEntity
8
0
100
AcDbSpline
62
7
6
CONTINUOUS
70
0
71
3
72
10
73
6
74
4
42
0.0000001000
43
0.0000001000
44
0.0000000001
40
0.0000000000
40
0.0000000000
40
0.0000000000
40
0.0000000000
40
0.0524995268
40
0.3973388485
40
1.0000000000
40
1.0000000000
40
1.0000000000
40
1.0000000000
10
304.0296371736
20
193.1108254243
30
0.0000000000
10
304.0262247495
20
193.1144812038
30
0.0000000000
10
304.0012402992
20
193.1428540458
30
0.0000000000
10
303.9535277943
20
193.2264674171
30
0.0000000000
10
303.9295923710
20
193.3153137264
30
0.0000000000
10
303.9228495987
20
193.3724498291
30
0.0000000000
11
304.0296371736
21
193.1108254243
31
0.0000000000
11
304.0197276741
21
193.1220635590
31
0.0000000000
11
303.9686467697
21
193.2061846449
31
0.0000000000
11
303.9228495987
21
193.3724498291
31
0.0000000000
0
SPLINE
5
43A
100
AcDbEntity
8
0
100
AcDbSpline
62
7
6
CONTINUOUS
70
0
71
3
72
8
73
4
74
2
42
0.0000001000
43
0.0000001000
44
0.0000000001
40
0.0000000000
40
0.0000000000
40
0.0000000000
40
0.0000000000
40
1.0000000000
40
1.0000000000
40
1.0000000000
40
1.0000000000
10
303.9228495987
20
193.3724498291
30
0.0000000000
10
303.9221721094
20
193.3781906581
30
0.0000000000
10
303.9215802444
20
193.3839377976
30
0.0000000000
10
303.9210738776
20
193.3896879327
30
0.0000000000
11
303.9228495987
21
193.3724498291
31
0.0000000000
11
303.9210738776
21
193.3896879327
31
0.0000000000
0
SPLINE
5
43B
100
AcDbEntity
8
0
100
AcDbSpline
62
7
6
CONTINUOUS
70
0
71
3
72
10
73
6
74
4
42
0.0000001000
43
0.0000001000
44
0.0000000001
40
0.0000000000
40
0.0000000000
40
0.0000000000
40
0.0000000000
40
0.3340338999
40
0.6659582453
40
1.0000000000
40
1.0000000000
40
1.0000000000
40
1.0000000000
10
298.0437417449
20
188.0665665764
30
0.0000000000
10
297.4499159145
20
188.0665647826
30
0.0000000000
10
296.2660151286
20
188.0649858023
30
0.0000000000
10
294.4882734426
20
188.0649857512
30
0.0000000000
10
293.3043586930
20
188.0665647928
30
0.0000000000
10
292.7105188987
20
188.0665665764
30
0.0000000000
11
298.0437417449
21
188.0665665764
31
0.0000000000
11
296.2622646500
21
188.0653780419
31
0.0000000000
11
294.4920378850
21
188.0653780139
31
0.0000000000
11
292.7105188987
21
188.0665665764
31
0.0000000000
0
SPLINE
5
43C
100
AcDbEntity
8
0
100
AcDbSpline
62
7
6
CONTINUOUS
70
0
71
3
72
10
73
6
74
4
42
0.0000001000
43
0.0000001000
44
0.0000000001
40
0.0000000000
40
0.0000000000
40
0.0000000000
40
0.0000000000
40
0.0220858862
40
0.5110472890
40
1.0000000000
40
1.0000000000
40
1.0000000000
40
1.0000000000
10
126.4005010100
20
121.7278189516
30
0.0000000000
10
126.3961713718
20
121.7283091120
30
0.0000000000
10
126.2960675237
20
121.7403091717
30
0.0000000000
10
126.1042701379
20
121.7936121175
30
0.0000000000
10
125.9392705894
20
121.8969149482
30
0.0000000000
10
125.8657823414
20
121.9593863518
30
0.0000000000
11
126.4005010100
21
121.7278189516
31
0.0000000000
11
126.3875229098
21
121.7293747873
31
0.0000000000
11
126.1099090266
21
121.8064070902
31
0.0000000000
11
125.8657823414
21
121.9593863518
31
0.0000000000
0
SPLINE
5
43D
100
AcDbEntity
8
0
100
AcDbSpline
62
7
6
CONTINUOUS
70
0
71
3
72
8
73
4
74
2
42
0.0000001000
43
0.0000001000
44
0.0000000001
40
0.0000000000
40
0.0000000000
40
0.0000000000
40
0.0000000000
40
1.0000000000
40
1.0000000000
40
1.0000000000
40
1.0000000000
10
125.8657823414
20
121.9593863518
30
0.0000000000
10
125.8290786048
20
121.9905877208
30
0.0000000000
10
125.7946226170
20
122.0244882583
30
0.0000000000
10
125.7627944280
20
122.0606337064
30
0.0000000000
11
125.8657823414
21
121.9593863518
31
0.0000000000
11
125.7627944280
21
122.0606337064
31
0.0000000000
0
SPLINE
5
43E
100
AcDbEntity
8
0
100
AcDbSpline
62
7
6
CONTINUOUS
70
0
71
3
72
8
73
4
74
2
42
0.0000001000
43
0.0000001000
44
0.0000000001
40
0.0000000000
40
0.0000000000
40
0.0000000000
40
0.0000000000
40
1.0000000000
40
1.0000000000
40
1.0000000000
40
1.0000000000
10
125.7627944280
20
122.0606337064
30
0.0000000000
10
125.7310441303
20
122.0966906979
30
0.0000000000
10
125.7019087852
20
122.1349816259
30
0.0000000000
10
125.6757656595
20
122.1750555593
30
0.0000000000
11
125.7627944280
21
122.0606337064
31
0.0000000000
11
125.6757656595
21
122.1750555593
31
0.0000000000
0
SPLINE
5
43F
100
AcDbEntity
8
0
100
AcDbSpline
62
7
6
CONTINUOUS
70
0
71
3
72
8
73
4
74
2
42
0.0000001000
43
0.0000001000
44
0.0000000001
40
0.0000000000
40
0.0000000000
40
0.0000000000
40
0.0000000000
40
1.0000000000
40
1.0000000000
40
1.0000000000
40
1.0000000000
10
96.3618780464
20
122.1750555077
30
0.0000000000
10
96.3095281115
20
122.0948100314
30
0.0000000000
10
96.2451801421
20
122.0217139586
30
0.0000000000
10
96.1718632979
20
121.9593879423
30
0.0000000000
11
96.3618780464
21
122.1750555077
31
0.0000000000
11
96.1718632979
21
121.9593879423
31
0.0000000000
0
SPLINE
5
440
100
AcDbEntity
8
0
100
AcDbSpline
62
7
6
CONTINUOUS
70
0
71
3
72
10
73
6
74
4
42
0.0000001000
43
0.0000001000
44
0.0000000001
40
0.0000000000
40
0.0000000000
40
0.0000000000
40
0.0000000000
40
0.4889528231
40
0.9779140042
40
1.0000000000
40
1.0000000000
40
1.0000000000
40
1.0000000000
10
96.1718632979
20
121.9593879423
30
0.0000000000
10
96.0983748888
20
121.8969160802
30
0.0000000000
10
95.9333748625
20
121.7936125140
30
0.0000000000
10
95.7415767150
20
121.7403092011
30
0.0000000000
10
95.6414724793
20
121.7283090787
30
0.0000000000
10
95.6371428019
20
121.7278189134
30
0.0000000000
11
96.1718632979
21
121.9593879423
31
0.0000000000
11
95.9277358521
21
121.8064075557
31
0.0000000000
11
95.6501210196
21
121.7293747654
31
0.0000000000
11
95.6371428019
21
121.7278189134
31
0.0000000000
0
SPLINE
5
441
100
AcDbEntity
8
0
100
AcDbSpline
62
7
6
CONTINUOUS
70
0
71
3
72
10
73
6
74
4
42
0.0000001000
43
0.0000001000
44
0.0000000001
40
0.0000000000
40
0.0000000000
40
0.0000000000
40
0.0000000000
40
0.0220858862
40
0.5110472890
40
1.0000000000
40
1.0000000000
40
1.0000000000
40
1.0000000000
10
95.6371427490
20
103.4990985058
30
0.0000000000
10
95.6414723872
20
103.4986083454
30
0.0000000000
10
95.7415762353
20
103.4866082857
30
0.0000000000
10
95.9333736211
20
103.4333053399
30
0.0000000000
10
96.0983731696
20
103.3300025092
30
0.0000000000
10
96.1718614176
20
103.2675311056
30
0.0000000000
11
95.6371427490
21
103.4990985058
31
0.0000000000
11
95.6501208492
21
103.4975426701
31
0.0000000000
11
95.9277347324
21
103.4205103672
31
0.0000000000
11
96.1718614176
21
103.2675311056
31
0.0000000000
0
SPLINE
5
442
100
AcDbEntity
8
0
100
AcDbSpline
62
7
6
CONTINUOUS
70
0
71
3
72
8
73
4
74
2
42
0.0000001000
43
0.0000001000
44
0.0000000001
40
0.0000000000
40
0.0000000000
40
0.0000000000
40
0.0000000000
40
1.0000000000
40
1.0000000000
40
1.0000000000
40
1.0000000000
10
96.1718614176
20
103.2675311056
30
0.0000000000
10
96.2085651542
20
103.2363297366
30
0.0000000000
10
96.2430211420
20
103.2024291991
30
0.0000000000
10
96.2748493310
20
103.1662837510
30
0.0000000000
11
96.1718614176
21
103.2675311056
31
0.0000000000
11
96.2748493310
21
103.1662837510
31
0.0000000000
0
SPLINE
5
443
100
AcDbEntity
8
0
100
AcDbSpline
62
7
6
CONTINUOUS
70
0
71
3
72
8
73
4
74
2
42
0.0000001000
43
0.0000001000
44
0.0000000001
40
0.0000000000
40
0.0000000000
40
0.0000000000
40
0.0000000000
40
1.0000000000
40
1.0000000000
40
1.0000000000
40
1.0000000000
10
96.2748493310
20
103.1662837510
30
0.0000000000
10
96.3065996288
20
103.1302267595
30
0.0000000000
10
96.3357349738
20
103.0919358316
30
0.0000000000
10
96.3618780996
20
103.0518618981
30
0.0000000000
11
96.2748493310
21
103.1662837510
31
0.0000000000
11
96.3618780996
21
103.0518618981
31
0.0000000000
0
SPLINE
5
444
100
AcDbEntity
8
0
100
AcDbSpline
62
7
6
CONTINUOUS
70
0
71
3
72
8
73
4
74
2
42
0.0000001000
43
0.0000001000
44
0.0000000001
40
0.0000000000
40
0.0000000000
40
0.0000000000
40
0.0000000000
40
1.0000000000
40
1.0000000000
40
1.0000000000
40
1.0000000000
10
125.6757657126
20
103.0518619497
30
0.0000000000
10
125.7281156475
20
103.1321074260
30
0.0000000000
10
125.7924636170
20
103.2052034988
30
0.0000000000
10
125.8657804612
20
103.2675295151
30
0.0000000000
11
125.6757657126
21
103.0518619497
31
0.0000000000
11
125.8657804612
21
103.2675295151
31
0.0000000000
0
SPLINE
5
445
100
AcDbEntity
8
0
100
AcDbSpline
62
7
6
CONTINUOUS
70
0
71
3
72
10
73
6
74
4
42
0.0000001000
43
0.0000001000
44
0.0000000001
40
0.0000000000
40
0.0000000000
40
0.0000000000
40
0.0000000000
40
0.4889528231
40
0.9779140042
40
1.0000000000
40
1.0000000000
40
1.0000000000
40
1.0000000000
10
125.8657804612
20
103.2675295151
30
0.0000000000
10
125.9392688702
20
103.3300013772
30
0.0000000000
10
126.1042688965
20
103.4333049434
30
0.0000000000
10
126.2960670440
20
103.4866082563
30
0.0000000000
10
126.3961712797
20
103.4986083787
30
0.0000000000
10
126.4005009571
20
103.4990985440
30
0.0000000000
11
125.8657804612
21
103.2675295151
31
0.0000000000
11
126.1099079069
21
103.4205099017
31
0.0000000000
11
126.3875227395
21
103.4975426920
31
0.0000000000
11
126.4005009571
21
103.4990985440
31
0.0000000000
0
SPLINE
5
446
100
AcDbEntity
8
0
100
AcDbSpline
62
7
6
CONTINUOUS
70
0
71
3
72
17
73
13
74
11
42
0.0000001000
43
0.0000001000
44
0.0000000001
40
0.0000000000
40
0.0000000000
40
0.0000000000
40
0.0000000000
40
0.1160840421
40
0.2542394245
40
0.3849095139
40
0.5070371859
40
0.6197630525
40
0.7225172033
40
0.8149673418
40
0.8969400984
40
0.9683013534
40
1.0000000000
40
1.0000000000
40
1.0000000000
40
1.0000000000
10
89.7587140219
20
103.7474716727
30
0.0000000000
10
89.9781150227
20
103.7474778848
30
0.0000000000
10
90.4586343722
20
103.7456095130
30
0.0000000000
10
91.1860713935
20
103.7364678479
30
0.0000000000
10
91.9248137240
20
103.7203625790
30
0.0000000000
10
92.6153329514
20
103.6988584485
30
0.0000000000
10
93.2529012076
20
103.6728910198
30
0.0000000000
10
93.8341442288
20
103.6433846747
30
0.0000000000
10
94.3570719566
20
103.6112400648
30
0.0000000000
10
94.8202708126
20
103.5773581729
30
0.0000000000
10
95.1689873403
20
103.5472184809
30
0.0000000000
10
95.3624594754
20
103.5283767437
30
0.0000000000
10
95.4220259179
20
103.5223010890
30
0.0000000000
11
89.7587140219
21
103.7474716727
31
0.0000000000
11
90.4169117422
21
103.7449023909
31
0.0000000000
11
91.2001966252
21
103.7350514766
31
0.0000000000
11
91.9409236946
21
103.7188194803
31
0.0000000000
11
92.6330538056
21
103.6971567841
31
0.0000000000
11
93.2716791421
21
103.6710091511
31
0.0000000000
11
93.8535419138
21
103.6413074420
31
0.0000000000
11
94.3767386287
21
103.6089527893
31
0.0000000000
11
94.8402709955
21
103.5747981930
31
0.0000000000
11
95.2433735089
21
103.5397728802
31
0.0000000000
11
95.4220259179
21
103.5223010890
31
0.0000000000
0
SPLINE
5
447
100
AcDbEntity
8
0
100
AcDbSpline
62
7
6
CONTINUOUS
70
0
71
3
72
8
73
4
74
2
42
0.0000001000
43
0.0000001000
44
0.0000000001
40
0.0000000000
40
0.0000000000
40
0.0000000000
40
0.0000000000
40
1.0000000000
40
1.0000000000
40
1.0000000000
40
1.0000000000
10
95.4220259179
20
103.5223010890
30
0.0000000000
10
95.4765870612
20
103.5167359646
30
0.0000000000
10
95.5311979200
20
103.5109355772
30
0.0000000000
10
95.5859590513
20
103.5048337966
30
0.0000000000
11
95.4220259179
21
103.5223010890
31
0.0000000000
11
95.5859590513
21
103.5048337966
31
0.0000000000
0
SPLINE
5
448
100
AcDbEntity
8
0
100
AcDbSpline
62
7
6
CONTINUOUS
70
0
71
3
72
8
73
4
74
2
42
0.0000001000
43
0.0000001000
44
0.0000000001
40
0.0000000000
40
0.0000000000
40
0.0000000000
40
0.0000000000
40
1.0000000000
40
1.0000000000
40
1.0000000000
40
1.0000000000
10
95.5859590513
20
103.5048337966
30
0.0000000000
10
95.6030005051
20
103.5029349459
30
0.0000000000
10
95.6200565117
20
103.5010069073
30
0.0000000000
10
95.6371111952
20
103.4990529464
30
0.0000000000
11
95.5859590513
21
103.5048337966
31
0.0000000000
11
95.6371111952
21
103.4990529464
31
0.0000000000
0
SPLINE
5
449
100
AcDbEntity
8
0
100
AcDbSpline
62
7
6
CONTINUOUS
70
0
71
3
72
9
73
5
74
3
42
0.0000001000
43
0.0000001000
44
0.0000000001
40
0.0000000000
40
0.0000000000
40
0.0000000000
40
0.0000000000
40
0.1940891546
40
1.0000000000
40
1.0000000000
40
1.0000000000
40
1.0000000000
10
88.3726605530
20
103.7787329864
30
0.0000000000
10
88.3920864591
20
103.7747060202
30
0.0000000000
10
88.4926073945
20
103.7559477255
30
0.0000000000
10
88.5950016624
20
103.7475571784
30
0.0000000000
10
88.6774004784
20
103.7475374524
30
0.0000000000
11
88.3726605530
21
103.7787329864
31
0.0000000000
11
88.4311770754
21
103.7678150163
31
0.0000000000
11
88.6774004784
21
103.7475374524
31
0.0000000000
0
SPLINE
5
44A
100
AcDbEntity
8
0
100
AcDbSpline
62
7
6
CONTINUOUS
70
0
71
3
72
8
73
4
74
2
42
0.0000001000
43
0.0000001000
44
0.0000000001
40
0.0000000000
40
0.0000000000
40
0.0000000000
40
0.0000000000
40
1.0000000000
40
1.0000000000
40
1.0000000000
40
1.0000000000
10
88.6774004621
20
121.4794490885
30
0.0000000000
10
88.5753307949
20
121.4794490885
30
0.0000000000
10
88.4728855231
20
121.4689210386
30
0.0000000000
10
88.3725964027
20
121.4481370443
30
0.0000000000
11
88.6774004621
21
121.4794490885
31
0.0000000000
11
88.3725964027
21
121.4481370443
31
0.0000000000
0
SPLINE
5
44B
100
AcDbEntity
8
0
100
AcDbSpline
62
7
6
CONTINUOUS
70
0
71
3
72
9
73
5
74
3
42
0.0000001000
43
0.0000001000
44
0.0000000001
40
0.0000000000
40
0.0000000000
40
0.0000000000
40
0.0000000000
40
0.1761555777
40
1.0000000000
40
1.0000000000
40
1.0000000000
40
1.0000000000
10
95.6371125399
20
121.7278469310
30
0.0000000000
10
95.6253983481
20
121.7265053892
30
0.0000000000
10
95.5589082042
20
121.7189630164
30
0.0000000000
10
95.4926308766
20
121.7118689020
30
0.0000000000
10
95.4380758404
20
121.7062624298
30
0.0000000000
11
95.6371125399
21
121.7278469310
31
0.0000000000
11
95.6019797325
21
121.7238620369
31
0.0000000000
11
95.4380758404
21
121.7062624298
31
0.0000000000
0
SPLINE
5
44C
100
AcDbEntity
8
0
100
AcDbSpline
62
7
6
CONTINUOUS
70
0
71
3
72
8
73
4
74
2
42
0.0000001000
43
0.0000001000
44
0.0000000001
40
0.0000000000
40
0.0000000000
40
0.0000000000
40
0.0000000000
40
1.0000000000
40
1.0000000000
40
1.0000000000
40
1.0000000000
10
95.4380758404
20
121.7062624298
30
0.0000000000
10
95.4230811221
20
121.7047214635
30
0.0000000000
10
95.4080899673
20
121.7031984750
30
0.0000000000
10
95.3931003563
20
121.7016920884
30
0.0000000000
11
95.4380758404
21
121.7062624298
31
0.0000000000
11
95.3931003563
21
121.7016920884
31
0.0000000000
0
SPLINE
5
44D
100
AcDbEntity
8
0
100
AcDbSpline
62
7
6
CONTINUOUS
70
0
71
3
72
17
73
13
74
11
42
0.0000001000
43
0.0000001000
44
0.0000000001
40
0.0000000000
40
0.0000000000
40
0.0000000000
40
0.0000000000
40
0.0238591296
40
0.0956527571
40
0.1782210838
40
0.2714677376
40
0.3752232078
40
0.4891517651
40
0.6126745744
40
0.7449122037
40
0.8847795359
40
1.0000000000
40
1.0000000000
40
1.0000000000
40
1.0000000000
10
95.3931003563
20
121.7016920884
30
0.0000000000
10
95.3485136362
20
121.6972113291
30
0.0000000000
10
95.1698174184
20
121.6798365662
30
0.0000000000
10
94.8356862237
20
121.6507781161
30
0.0000000000
10
94.3714558339
20
121.6166344987
30
0.0000000000
10
93.8467315758
20
121.5842277664
30
0.0000000000
10
93.2628446125
20
121.5544681273
30
0.0000000000
10
92.6217919576
20
121.5282776013
30
0.0000000000
10
91.9269917520
20
121.5065974400
30
0.0000000000
10
91.1832554666
20
121.4903850355
30
0.0000000000
10
90.4550112768
20
121.4812811209
30
0.0000000000
10
89.9753645230
20
121.4794397155
30
0.0000000000
10
89.7587140640
20
121.4794458234
30
0.0000000000
11
95.3931003563
21
121.7016920884
31
0.0000000000
11
95.2593280168
21
121.6886542628
31
0.0000000000
11
94.8558853445
21
121.6533748123
31
0.0000000000
11
94.3913970919
21
121.6189591799
31
0.0000000000
11
93.8664125256
21
121.5863376666
31
0.0000000000
11
93.2819032509
21
121.5563790968
31
0.0000000000
11
92.6397825777
21
121.5300042104
31
0.0000000000
11
91.9433424543
21
121.5081623777
31
0.0000000000
11
91.1975793152
21
121.4918206809
31
0.0000000000
11
90.4086603299
21
121.4819507809
31
0.0000000000
11
89.7587140640
21
121.4794458234
31
0.0000000000
0
SPLINE
5
44E
100
AcDbEntity
8
0
100
AcDbSpline
62
7
6
CONTINUOUS
70
0
71
3
72
17
73
13
74
11
42
0.0000001000
43
0.0000001000
44
0.0000000001
40
0.0000000000
40
0.0000000000
40
0.0000000000
40
0.0000000000
40
0.1160840421
40
0.2542394245
40
0.3849095139
40
0.5070371859
40
0.6197630525
40
0.7225172033
40
0.8149673418
40
0.8969400984
40
0.9683013534
40
1.0000000000
40
1.0000000000
40
1.0000000000
40
1.0000000000
10
132.2789297371
20
121.4794457847
30
0.0000000000
10
132.0595287363
20
121.4794395726
30
0.0000000000
10
131.5790093868
20
121.4813079444
30
0.0000000000
10
130.8515723655
20
121.4904496095
30
0.0000000000
10
130.1128300350
20
121.5065548784
30
0.0000000000
10
129.4223108076
20
121.5280590089
30
0.0000000000
10
128.7847425514
20
121.5540264376
30
0.0000000000
10
128.2034995302
20
121.5835327827
30
0.0000000000
10
127.6805718024
20
121.6156773927
30
0.0000000000
10
127.2173729464
20
121.6495592845
30
0.0000000000
10
126.8686564187
20
121.6796989765
30
0.0000000000
10
126.6751842836
20
121.6985407137
30
0.0000000000
10
126.6156178411
20
121.7046163684
30
0.0000000000
11
132.2789297371
21
121.4794457847
31
0.0000000000
11
131.6207320168
21
121.4820150665
31
0.0000000000
11
130.8374471338
21
121.4918659809
31
0.0000000000
11
130.0967200644
21
121.5080979771
31
0.0000000000
11
129.4045899534
21
121.5297606733
31
0.0000000000
11
128.7659646169
21
121.5559083063
31
0.0000000000
11
128.1841018452
21
121.5856100154
31
0.0000000000
11
127.6609051303
21
121.6179646682
31
0.0000000000
11
127.1973727635
21
121.6521192644
31
0.0000000000
11
126.7942702502
21
121.6871445773
31
0.0000000000
11
126.6156178411
21
121.7046163684
31
0.0000000000
0
SPLINE
5
44F
100
AcDbEntity
8
0
100
AcDbSpline
62
7
6
CONTINUOUS
70
0
71
3
72
8
73
4
74
2
42
0.0000001000
43
0.0000001000
44
0.0000000001
40
0.0000000000
40
0.0000000000
40
0.0000000000
40
0.0000000000
40
1.0000000000
40
1.0000000000
40
1.0000000000
40
1.0000000000
10
126.6156178411
20
121.7046163684
30
0.0000000000
10
126.5610566978
20
121.7101814928
30
0.0000000000
10
126.5064458390
20
121.7159818802
30
0.0000000000
10
126.4516847077
20
121.7220836609
30
0.0000000000
11
126.6156178411
21
121.7046163684
31
0.0000000000
11
126.4516847077
21
121.7220836609
31
0.0000000000
0
SPLINE
5
450
100
AcDbEntity
8
0
100
AcDbSpline
62
7
6
CONTINUOUS
70
0
71
3
72
8
73
4
74
2
42
0.0000001000
43
0.0000001000
44
0.0000000001
40
0.0000000000
40
0.0000000000
40
0.0000000000
40
0.0000000000
40
1.0000000000
40
1.0000000000
40
1.0000000000
40
1.0000000000
10
126.4516847077
20
121.7220836609
30
0.0000000000
10
126.4346432540
20
121.7239825115
30
0.0000000000
10
126.4175872473
20
121.7259105501
30
0.0000000000
10
126.4005325639
20
121.7278645111
30
0.0000000000
11
126.4516847077
21
121.7220836609
31
0.0000000000
11
126.4005325639
21
121.7278645111
31
0.0000000000
0
SPLINE
5
451
100
AcDbEntity
8
0
100
AcDbSpline
62
7
6
CONTINUOUS
70
0
71
3
72
9
73
5
74
3
42
0.0000001000
43
0.0000001000
44
0.0000000001
40
0.0000000000
40
0.0000000000
40
0.0000000000
40
0.0000000000
40
0.1940885554
40
1.0000000000
40
1.0000000000
40
1.0000000000
40
1.0000000000
10
133.6649829827
20
121.4481845172
30
0.0000000000
10
133.6455571504
20
121.4522114652
30
0.0000000000
10
133.5450362884
20
121.4709697382
30
0.0000000000
10
133.4426420966
20
121.4793602791
30
0.0000000000
10
133.3602432807
20
121.4793800050
30
0.0000000000
11
133.6649829827
21
121.4481845172
31
0.0000000000
11
133.6064666836
21
121.4591024411
31
0.0000000000
11
133.3602432807
21
121.4793800050
31
0.0000000000
0
SPLINE
5
452
100
AcDbEntity
8
0
100
AcDbSpline
62
7
6
CONTINUOUS
70
0
71
3
72
8
73
4
74
2
42
0.0000001000
43
0.0000001000
44
0.0000000001
40
0.0000000000
40
0.0000000000
40
0.0000000000
40
0.0000000000
40
1.0000000000
40
1.0000000000
40
1.0000000000
40
1.0000000000
10
133.3602432969
20
103.7474683689
30
0.0000000000
10
133.4623129641
20
103.7474683689
30
0.0000000000
10
133.5647582359
20
103.7579964188
30
0.0000000000
10
133.6650473563
20
103.7787804131
30
0.0000000000
11
133.3602432969
21
103.7474683689
31
0.0000000000
11
133.6650473563
21
103.7787804131
31
0.0000000000
0
SPLINE
5
453
100
AcDbEntity
8
0
100
AcDbSpline
62
7
6
CONTINUOUS
70
0
71
3
72
9
73
5
74
3
42
0.0000001000
43
0.0000001000
44
0.0000000001
40
0.0000000000
40
0.0000000000
40
0.0000000000
40
0.0000000000
40
0.1761555777
40
1.0000000000
40
1.0000000000
40
1.0000000000
40
1.0000000000
10
126.4005312191
20
103.4990705265
30
0.0000000000
10
126.4122454110
20
103.5004120682
30
0.0000000000
10
126.4787355548
20
103.5079544410
30
0.0000000000
10
126.5450128824
20
103.5150485554
30
0.0000000000
10
126.5995679186
20
103.5206550276
30
0.0000000000
11
126.4005312191
21
103.4990705265
31
0.0000000000
11
126.4356640265
21
103.5030554205
31
0.0000000000
11
126.5995679186
21
103.5206550276
31
0.0000000000
0
SPLINE
5
454
100
AcDbEntity
8
0
100
AcDbSpline
62
7
6
CONTINUOUS
70
0
71
3
72
8
73
4
74
2
42
0.0000001000
43
0.0000001000
44
0.0000000001
40
0.0000000000
40
0.0000000000
40
0.0000000000
40
0.0000000000
40
1.0000000000
40
1.0000000000
40
1.0000000000
40
1.0000000000
10
126.5995679186
20
103.5206550276
30
0.0000000000
10
126.6145626369
20
103.5221959939
30
0.0000000000
10
126.6295537917
20
103.5237189824
30
0.0000000000
10
126.6445434027
20
103.5252253690
30
0.0000000000
11
126.5995679186
21
103.5206550276
31
0.0000000000
11
126.6445434027
21
103.5252253690
31
0.0000000000
0
SPLINE
5
455
100
AcDbEntity
8
0
100
AcDbSpline
62
7
6
CONTINUOUS
70
0
71
3
72
17
73
13
74
11
42
0.0000001000
43
0.0000001000
44
0.0000000001
40
0.0000000000
40
0.0000000000
40
0.0000000000
40
0.0000000000
40
0.0238591296
40
0.0956527571
40
0.1782210838
40
0.2714677376
40
0.3752232078
40
0.4891517651
40
0.6126745744
40
0.7449122037
40
0.8847795359
40
1.0000000000
40
1.0000000000
40
1.0000000000
40
1.0000000000
10
126.6445434027
20
103.5252253690
30
0.0000000000
10
126.6891301228
20
103.5297061283
30
0.0000000000
10
126.8678263406
20
103.5470808913
30
0.0000000000
10
127.2019575353
20
103.5761393414
30
0.0000000000
10
127.6661879251
20
103.6102829587
30
0.0000000000
10
128.1909121832
20
103.6426896910
30
0.0000000000
10
128.7747991465
20
103.6724493301
30
0.0000000000
10
129.4158518014
20
103.6986398561
30
0.0000000000
10
130.1106520070
20
103.7203200175
30
0.0000000000
10
130.8543882924
20
103.7365324219
30
0.0000000000
10
131.5826324822
20
103.7456363365
30
0.0000000000
10
132.0622792360
20
103.7474777419
30
0.0000000000
10
132.2789296950
20
103.7474716340
30
0.0000000000
11
126.6445434027
21
103.5252253690
31
0.0000000000
11
126.7783157422
21
103.5382631947
31
0.0000000000
11
127.1817584145
21
103.5735426452
31
0.0000000000
11
127.6462466671
21
103.6079582776
31
0.0000000000
11
128.1712312334
21
103.6405797908
31
0.0000000000
11
128.7557405081
21
103.6705383606
31
0.0000000000
11
129.3978611813
21
103.6969132470
31
0.0000000000
11
130.0943013048
21
103.7187550797
31
0.0000000000
11
130.8400644438
21
103.7350967765
31
0.0000000000
11
131.6289834291
21
103.7449666765
31
0.0000000000
11
132.2789296950
21
103.7474716340
31
0.0000000000
0
SPLINE
5
456
100
AcDbEntity
8
0
100
AcDbSpline
62
7
6
CONTINUOUS
70
0
71
3
72
10
73
6
74
4
42
0.0000001000
43
0.0000001000
44
0.0000000001
40
0.0000000000
40
0.0000000000
40
0.0000000000
40
0.0000000000
40
0.0872026347
40
0.7775258081
40
1.0000000000
40
1.0000000000
40
1.0000000000
40
1.0000000000
10
142.4668599471
20
119.6233713191
30
0.0000000000
10
142.4624975148
20
119.6245306696
30
0.0000000000
10
142.4235721665
20
119.6347595251
30
0.0000000000
10
142.3731983838
20
119.6466967324
30
0.0000000000
10
142.3269823943
20
119.6565133697
30
0.0000000000
10
142.3157058290
20
119.6588458023
30
0.0000000000
11
142.4668599471
21
119.6233713191
31
0.0000000000
11
142.4537632087
21
119.6268131673
31
0.0000000000
11
142.3494966913
21
119.6516640601
31
0.0000000000
11
142.3157058290
21
119.6588458023
31
0.0000000000
0
SPLINE
5
457
100
AcDbEntity
8
0
100
AcDbSpline
62
7
6
CONTINUOUS
70
0
71
3
72
16
73
12
74
10
42
0.0000001000
43
0.0000001000
44
0.0000000001
40
0.0000000000
40
0.0000000000
40
0.0000000000
40
0.0000000000
40
0.0967450298
40
0.2712871099
40
0.4296992397
40
0.5736063471
40
0.7021618733
40
0.8139618257
40
0.9010008380
40
0.9687126184
40
1.0000000000
40
1.0000000000
40
1.0000000000
40
1.0000000000
10
143.7021651727
20
118.1259306751
30
0.0000000000
10
143.7021605917
20
118.1937770015
30
0.0000000000
10
143.6893537641
20
118.3841977614
30
0.0000000000
10
143.6121240448
20
118.6772803847
30
0.0000000000
10
143.4541087568
20
118.9737862642
30
0.0000000000
10
143.2588141464
20
119.2055774345
30
0.0000000000
10
143.0493012686
20
119.3757614897
30
0.0000000000
10
142.8498390273
20
119.4895634294
30
0.0000000000
10
142.6772582812
20
119.5605141636
30
0.0000000000
10
142.5532405824
20
119.5997583280
30
0.0000000000
10
142.4865424857
20
119.6181527430
30
0.0000000000
10
142.4654087146
20
119.6237588111
30
0.0000000000
11
143.7021651727
21
118.1259306751
31
0.0000000000
11
143.6884542737
21
118.3289058794
31
0.0000000000
11
143.5953505277
21
118.6827666674
31
0.0000000000
11
143.4391849761
21
118.9758467433
31
0.0000000000
11
143.2448646681
21
119.2066098362
31
0.0000000000
11
143.0357644838
21
119.3766305419
31
0.0000000000
11
142.8323512183
21
119.4930522896
31
0.0000000000
11
142.6638064310
21
119.5629547308
31
0.0000000000
11
142.5286304030
21
119.6062775037
31
0.0000000000
11
142.4654087146
21
119.6237588111
31
0.0000000000
0
SPLINE
5
458
100
AcDbEntity
8
0
100
AcDbSpline
62
7
6
CONTINUOUS
70
0
71
3
72
10
73
6
74
4
42
0.0000001000
43
0.0000001000
44
0.0000000001
40
0.0000000000
40
0.0000000000
40
0.0000000000
40
0.0000000000
40
0.2675459965
40
0.9624151504
40
1.0000000000
40
1.0000000000
40
1.0000000000
40
1.0000000000
10
79.7219438230
20
119.6588470702
30
0.0000000000
10
79.7083814990
20
119.6560419326
30
0.0000000000
10
79.6596598703
20
119.6456382127
30
0.0000000000
10
79.6093136806
20
119.6335640503
30
0.0000000000
10
79.5726571707
20
119.6238692682
30
0.0000000000
10
79.5707767852
20
119.6233695355
30
0.0000000000
11
79.7219438230
21
119.6588470702
31
0.0000000000
11
79.6813135093
21
119.6501635586
31
0.0000000000
11
79.5764197041
21
119.6248619757
31
0.0000000000
11
79.5707767852
21
119.6233695355
31
0.0000000000
0
SPLINE
5
459
100
AcDbEntity
8
0
100
AcDbSpline
62
7
6
CONTINUOUS
70
0
71
3
72
17
73
13
74
11
42
0.0000001000
43
0.0000001000
44
0.0000000001
40
0.0000000000
40
0.0000000000
40
0.0000000000
40
0.0000000000
40
0.0449193636
40
0.1145528292
40
0.1966307106
40
0.2972880067
40
0.4116584065
40
0.5369411117
40
0.6697528442
40
0.8073111451
40
0.9493336070
40
1.0000000000
40
1.0000000000
40
1.0000000000
40
1.0000000000
10
79.5714512839
20
119.6235531698
30
0.0000000000
10
79.5411052102
20
119.6154980769
30
0.0000000000
10
79.4640053262
20
119.5938632666
30
0.0000000000
10
79.3334957254
20
119.5504956580
30
0.0000000000
10
79.1712544218
20
119.4805497564
30
0.0000000000
10
78.9911244407
20
119.3759887114
30
0.0000000000
10
78.8042700561
20
119.2272563565
30
0.0000000000
10
78.6292305345
20
119.0328051724
30
0.0000000000
10
78.4830397411
20
118.7962338591
30
0.0000000000
10
78.3795111488
20
118.5253294096
30
0.0000000000
10
78.3401996667
20
118.2964303384
30
0.0000000000
10
78.3354470123
20
118.1614339343
30
0.0000000000
10
78.3354498755
20
118.1259431710
30
0.0000000000
11
79.5714512839
21
119.6235531698
31
0.0000000000
11
79.4808033631
21
119.5979726508
31
0.0000000000
11
79.3424220015
21
119.5514312059
31
0.0000000000
11
79.1845476450
21
119.4829425159
31
0.0000000000
11
79.0021342447
21
119.3768041756
31
0.0000000000
11
78.8145802291
21
119.2273852396
31
0.0000000000
11
78.6388779521
21
119.0321224242
31
0.0000000000
11
78.4925211733
21
118.7952239293
31
0.0000000000
11
78.3895662245
21
118.5258115584
31
0.0000000000
11
78.3392036362
21
118.2323273154
31
0.0000000000
11
78.3354498755
21
118.1259431710
31
0.0000000000
0
SPLINE
5
45A
100
AcDbEntity
8
0
100
AcDbSpline
62
7
6
CONTINUOUS
70
0
71
3
72
10
73
6
74
4
42
0.0000001000
43
0.0000001000
44
0.0000000001
40
0.0000000000
40
0.0000000000
40
0.0000000000
40
0.0000000000
40
0.0872031907
40
0.7775316711
40
1.0000000000
40
1.0000000000
40
1.0000000000
40
1.0000000000
10
79.5707837466
20
105.6035461564
30
0.0000000000
10
79.5751462089
20
105.6023867969
30
0.0000000000
10
79.6140718711
20
105.5921578513
30
0.0000000000
10
79.6644456829
20
105.5802206357
30
0.0000000000
10
79.7106616753
20
105.5704040250
30
0.0000000000
10
79.7219379506
20
105.5680716566
30
0.0000000000
11
79.5707837466
21
105.6035461564
31
0.0000000000
11
79.5838805753
21
105.6001042818
31
0.0000000000
11
79.6881479564
21
105.5752531967
31
0.0000000000
11
79.7219379506
21
105.5680716566
31
0.0000000000
0
SPLINE
5
45B
100
AcDbEntity
8
0
100
AcDbSpline
62
7
6
CONTINUOUS
70
0
71
3
72
16
73
12
74
10
42
0.0000001000
43
0.0000001000
44
0.0000000001
40
0.0000000000
40
0.0000000000
40
0.0000000000
40
0.0000000000
40
0.0967752484
40
0.2713145147
40
0.4297095921
40
0.5736130077
40
0.7021614283
40
0.8139494238
40
0.9009688216
40
0.9687065261
40
1.0000000000
40
1.0000000000
40
1.0000000000
40
1.0000000000
10
78.3354849615
20
107.1009790397
30
0.0000000000
10
78.3354896577
20
107.0331108911
30
0.0000000000
10
78.3483021610
20
106.8426690340
30
0.0000000000
10
78.4255464466
20
106.5495803287
30
0.0000000000
10
78.5835630168
20
106.2530914375
30
0.0000000000
10
78.7788508833
20
106.0213168132
30
0.0000000000
10
78.9883566524
20
105.8511456825
30
0.0000000000
10
79.1877986381
20
105.7373598105
30
0.0000000000
10
79.3603751213
20
105.6664055441
30
0.0000000000
10
79.4844022406
20
105.6271583390
30
0.0000000000
10
79.5511227307
20
105.6087588183
30
0.0000000000
10
79.5722608712
20
105.6031519157
30
0.0000000000
11
78.3354849615
21
107.1009790397
31
0.0000000000
11
78.3492048125
21
106.8979389377
31
0.0000000000
11
78.4423224193
21
106.5440847630
31
0.0000000000
11
78.5984807131
21
106.2510382104
31
0.0000000000
11
78.7928020476
21
106.0202828336
31
0.0000000000
11
79.0018959227
21
105.8502744428
31
0.0000000000
11
79.2052904521
21
105.7338665138
31
0.0000000000
11
79.3737973967
21
105.6639762181
31
0.0000000000
11
79.5090261096
21
105.6206359119
31
0.0000000000
11
79.5722608712
21
105.6031519157
31
0.0000000000
0
SPLINE
5
45C
100
AcDbEntity
8
0
100
AcDbSpline
62
7
6
CONTINUOUS
70
0
71
3
72
10
73
6
74
4
42
0.0000001000
43
0.0000001000
44
0.0000000001
40
0.0000000000
40
0.0000000000
40
0.0000000000
40
0.0000000000
40
0.2675509919
40
0.9624153934
40
1.0000000000
40
1.0000000000
40
1.0000000000
40
1.0000000000
10
142.3156997589
20
105.5680703433
30
0.0000000000
10
142.3292623444
20
105.5708755390
30
0.0000000000
10
142.3779840128
20
105.5812792935
30
0.0000000000
10
142.4283302363
20
105.5933534582
30
0.0000000000
10
142.4649865224
20
105.6030481726
30
0.0000000000
10
142.4668668971
20
105.6035479021
30
0.0000000000
11
142.3156997589
21
105.5680703433
31
0.0000000000
11
142.3563308548
21
105.5767540399
31
0.0000000000
11
142.4612240106
21
105.6020554717
31
0.0000000000
11
142.4668668971
21
105.6035479021
31
0.0000000000
0
SPLINE
5
45D
100
AcDbEntity
8
0
100
AcDbSpline
62
7
6
CONTINUOUS
70
0
71
3
72
17
73
13
74
11
42
0.0000001000
43
0.0000001000
44
0.0000000001
40
0.0000000000
40
0.0000000000
40
0.0000000000
40
0.0000000000
40
0.0449193625
40
0.1145528264
40
0.1966307109
40
0.2972880097
40
0.4116584104
40
0.5369411150
40
0.6697528467
40
0.8073111469
40
0.9493336082
40
1.0000000000
40
1.0000000000
40
1.0000000000
40
1.0000000000
10
142.4661924738
20
105.6033642874
30
0.0000000000
10
142.4965385467
20
105.6114193800
30
0.0000000000
10
142.5736384288
20
105.6330541898
30
0.0000000000
10
142.7041480300
20
105.6764217977
30
0.0000000000
10
142.8663893365
20
105.7463676998
30
0.0000000000
10
143.0465193215
20
105.8509287475
30
0.0000000000
10
143.2333737069
20
105.9996611045
30
0.0000000000
10
143.4084132273
20
106.1941122892
30
0.0000000000
10
143.5546040189
20
106.4306836018
30
0.0000000000
10
143.6581326098
20
106.7015880501
30
0.0000000000
10
143.6974440911
20
106.9304871196
30
0.0000000000
10
143.7021967454
20
107.0654835223
30
0.0000000000
10
143.7021938822
20
107.1009742849
30
0.0000000000
11
142.4661924738
21
105.6033642874
31
0.0000000000
11
142.5568403924
21
105.6289448056
31
0.0000000000
11
142.6952217507
21
105.6754862487
31
0.0000000000
11
142.8530961134
21
105.7439749407
31
0.0000000000
11
143.0355095185
21
105.8501132840
31
0.0000000000
11
143.2230635347
21
105.9995322220
31
0.0000000000
11
143.3987658099
21
106.1947950375
31
0.0000000000
11
143.5451225866
21
106.4316935313
31
0.0000000000
11
143.6480775341
21
106.7011059013
31
0.0000000000
11
143.6984401216
21
106.9945901429
31
0.0000000000
11
143.7021938822
21
107.1009742849
31
0.0000000000
0
ENDSEC
0
SECTION
2
OBJECTS
0
DICTIONARY
5
45E
100
AcDbDictionary
3
ACAD_GROUP
350
45F
3
ACAD_MLINESTYLE
350
460
0
DICTIONARY
5
45F
102
{ACAD_REACTORS
330
45E
102
}
100
AcDbDictionary
0
DICTIONARY
5
460
102
{ACAD_REACTORS
330
45E
102
}
100
AcDbDictionary
3
STANDARD
350
461
0
MLINESTYLE
5
461
102
{ACAD_REACTORS
330
460
102
}
100
AcDbMlineStyle
2
STANDARD
70
0
3

62
256
51
90.0
52
90.0
71
2
49
0.5
62
256
6
BYLAYER
49
-0.5
62
256
6
BYLAYER
0
ENDSEC
0
EOF
