999
DXF file: C:\Aktuell-Internet\CAD-Daten\2rm-m12.dxf
999
Pro/ENGINEER 2001400 by Parametric Technology Corporation
0
SECTION
2
HEADER
9
$ACADVER
1
AC1014
9
$EXTMAX
10
420.0000000000
20
297.0000000000
9
$EXTMIN
10
0.0000000000
20
0.0000000000
9
$LIMMIN
10
0.0000000000
20
0.0000000000
9
$LIMMAX
10
420.0000000000
20
297.0000000000
9
$VIEWCTR
10
210.0000000000
20
148.5000000000
9
$VIEWSIZE
40
297.0000000000
9
$CLAYER
8
0
9
$LTSCALE
40
23.1000000000
9
$CELTYPE
6
BYLAYER
9
$DIMSCALE
40
1
9
$DIMASZ
40
3.5000000000
9
$DIMEXO
40
2.6250000000
9
$DIMDLI
40
15.9600000000
9
$DIMEXE
40
7.5600000000
9
$DIMCEN
40
3.7800000000
9
$DIMLFAC
40
1.0000000000
9
$DIMTXT
40
3.5000000000
9
$DIMTOL
70
1
9
$DIMTFAC
40
0.6000000000
9
$DIMTP
40
0.0050000000
9
$DIMTM
40
0.0050000000
9
$HANDSEED
5
3FD
0
ENDSEC
0
SECTION
2
CLASSES
0
ENDSEC
0
SECTION
2
TABLES
0
TABLE
2
VPORT
5
8
100
AcDbSymbolTable
70
2
0
VPORT
5
1F4
100
AcDbSymbolTableRecord
100
AcDbViewportTableRecord
2
*ACTIVE
70
0
10
0.0
20
0.0
11
1.0
21
1.0
12
210.0000000000
22
148.5000000000
13
0.0
23
0.0
14
1.0
24
1.0
15
0.0
25
0.0
16
0.0
26
0.0
36
1.0
17
0.0
27
0.0
37
0.0
40
297.0000000000
41
1.4141414141
42
50.0
43
0.0
44
0.0
50
0.0
51
0.0
71
0
72
100
73
1
74
1
75
0
76
0
77
0
78
0
0
ENDTAB
0
TABLE
2
LTYPE
5
5
100
AcDbSymbolTable
70
6
0
LTYPE
5
14
100
AcDbSymbolTableRecord
100
AcDbLinetypeTableRecord
2
BYBLOCK
70
0
3

72
65
73
0
40
0.0
0
LTYPE
5
15
100
AcDbSymbolTableRecord
100
AcDbLinetypeTableRecord
2
BYLAYER
70
0
3

72
65
73
0
40
0.0
0
LTYPE
5
16
100
AcDbSymbolTableRecord
100
AcDbLinetypeTableRecord
2
CONTINUOUS
70
64
3
Solid line
72
65
73
0
40
0
0
LTYPE
5
1F5
100
AcDbSymbolTableRecord
100
AcDbLinetypeTableRecord
2
CENTER
70
64
3
____ _ ____ _ ____ _ ____ _ ____ _ ____ _ ____
72
65
73
4
40
0.6
49
0.375
74
0
49
-0.075
74
0
49
0.075
74
0
49
-0.075
74
0
0
LTYPE
5
1F6
100
AcDbSymbolTableRecord
100
AcDbLinetypeTableRecord
2
HIDDEN
70
64
3
- - - - - - - - - - - - - - - - - - - -
72
65
73
2
40
0.2
49
0.1
74
0
49
-0.1
74
0
0
LTYPE
5
1F7
100
AcDbSymbolTableRecord
100
AcDbLinetypeTableRecord
2
PHANTOM
70
64
3
_____ _ _ _____ _ _ _____ _ _ _____
72
65
73
6
40
0.8
49
0.45
74
0
49
-0.05
74
0
49
0.1
74
0
49
-0.05
74
0
49
0.1
74
0
49
-0.05
74
0
0
LTYPE
5
1F8
100
AcDbSymbolTableRecord
100
AcDbLinetypeTableRecord
2
DOT
70
64
3
. . . . . . . . . . . . . . . . . . . .
72
65
73
2
40
0.2
49
0.1
74
0
49
-0.1
74
0
0
LTYPE
5
1F9
100
AcDbSymbolTableRecord
100
AcDbLinetypeTableRecord
2
DASHED
70
64
3
- - - - - - - - - - - - - - - - - - - -
72
65
73
2
40
0.2
49
0.1
74
0
49
-0.1
74
0
0
ENDTAB
0
TABLE
2
LAYER
5
2
100
AcDbSymbolTable
70
36
0
LAYER
5
10
100
AcDbSymbolTableRecord
100
AcDbLayerTableRecord
2
0
70
0
62
7
6
CONTINUOUS
0
LAYER
5
1FA
100
AcDbSymbolTableRecord
100
AcDbLayerTableRecord
2
DEFAULT_1
70
0
62
7
6
CENTER
0
LAYER
5
1FB
100
AcDbSymbolTableRecord
100
AcDbLayerTableRecord
2
DEFAULT_2
70
0
62
8
6
HIDDEN
0
LAYER
5
1FC
100
AcDbSymbolTableRecord
100
AcDbLayerTableRecord
2
DEFAULT_3
70
0
62
7
6
PHANTOM
0
ENDTAB
0
TABLE
2
STYLE
5
3
100
AcDbSymbolTable
70
1
0
STYLE
5
11
100
AcDbSymbolTableRecord
100
AcDbTextStyleTableRecord
2
STANDARD
70
0
40
0.0
41
1.0
50
0.0
71
0
42
0.0
3
txt
4

0
STYLE
5
1FD
100
AcDbSymbolTableRecord
100
AcDbTextStyleTableRecord
2
TEXTSTYLE_0
70
0
40
0.0
41
0.80
50
0.0
71
0
42
0.2
3
txt
4

0
ENDTAB
0
TABLE
2
VIEW
5
6
100
AcDbSymbolTable
70
0
0
ENDTAB
0
TABLE
2
UCS
5
7
100
AcDbSymbolTable
70
0
0
ENDTAB
0
TABLE
2
APPID
5
9
100
AcDbSymbolTable
70
1
0
APPID
5
1FE
100
AcDbSymbolTableRecord
100
AcDbRegAppTableRecord
2
ACAD
70
0
0
ENDTAB
0
TABLE
2
DIMSTYLE
5
A
100
AcDbSymbolTable
70
1
0
DIMSTYLE
105
1FF
100
AcDbSymbolTableRecord
100
AcDbDimStyleTableRecord
2
STANDARD
70
0
3

4

5

6

7

40
1.0
41
0.18
42
0.0625
43
0.38
44
0.18
45
0.0
46
0.0
47
0.0050000000
48
0.0050000000
140
3.5000000000
141
0.09
142
0.0
143
25.4
144
1.0000000000
145
0.0
146
0.6000000000
147
0.09
71
1
72
0
73
1
74
1
75
0
76
0
77
0
78
0
170
0
171
2
172
0
173
0
174
0
175
0
176
0
177
0
178
0
270
2
271
3
272
4
273
2
274
2
340
11
275
0
280
0
281
0
282
0
283
1
284
0
285
0
286
0
287
3
288
0
0
ENDTAB
0
TABLE
2
BLOCK_RECORD
5
1
100
AcDbSymbolTable
70
0
0
BLOCK_RECORD
5
1B
100
AcDbSymbolTableRecord
100
AcDbBlockTableRecord
2
*MODEL_SPACE
0
BLOCK_RECORD
5
1C
100
AcDbSymbolTableRecord
100
AcDbBlockTableRecord
2
*PAPER_SPACE
0
ENDTAB
0
ENDSEC
0
SECTION
2
BLOCKS
0
BLOCK
5
1E
100
AcDbEntity
8
0
100
AcDbBlockBegin
2
*MODEL_SPACE
70
0
10
0.0
20
0.0
30
0.0
3
*MODEL_SPACE
1

0
ENDBLK
5
1F
100
AcDbEntity
8
0
100
AcDbBlockEnd
0
BLOCK
5
20
100
AcDbEntity
8
0
100
AcDbBlockBegin
2
*PAPER_SPACE
70
0
10
0.0
20
0.0
30
0.0
3
*PAPER_SPACE
1

0
ENDBLK
5
21
100
AcDbEntity
8
0
100
AcDbBlockEnd
0
ENDSEC
0
SECTION
2
ENTITIES
0
TEXT
5
200
100
AcDbEntity
8
0
100
AcDbText
62
2
6
CONTINUOUS
10
88.5619359774
20
113.6900939775
7
TEXTSTYLE_0
40
3.5000000000
1
RUD
72
5
11
97.2286026441
21
113.6900939775
100
AcDbText
0
TEXT
5
201
100
AcDbEntity
8
0
100
AcDbText
62
2
6
CONTINUOUS
10
88.4200649813
20
107.8024476364
7
TEXTSTYLE_0
40
3.5000000000
1
RM M12
72
5
11
104.6700649813
21
107.8024476364
100
AcDbText
0
TEXT
5
202
100
AcDbEntity
8
0
100
AcDbText
62
2
6
CONTINUOUS
10
294.0818096229
20
200.6263399680
7
TEXTSTYLE_0
40
3.5000000000
1
RUD
50
90.0000000000
72
5
11
294.0818096229
21
209.2930066346
100
AcDbText
0
TEXT
5
203
100
AcDbEntity
8
0
100
AcDbText
62
2
6
CONTINUOUS
10
300.1659375443
20
200.0629947901
7
TEXTSTYLE_0
40
3.5000000000
1
RM M12
50
90.0000000000
72
5
11
300.1659375443
21
216.3129947901
100
AcDbText
0
LINE
5
204
100
AcDbEntity
8
0
100
AcDbLine
62
7
6
CONTINUOUS
10
0.0000000000
20
0.0000000000
11
0.0000000000
21
297.0000000000
0
LINE
5
205
100
AcDbEntity
8
0
100
AcDbLine
62
7
6
CONTINUOUS
10
0.0000000000
20
0.0000000000
11
420.0000000000
21
0.0000000000
0
LINE
5
206
100
AcDbEntity
8
0
100
AcDbLine
62
7
6
CONTINUOUS
10
0.0000000000
20
297.0000000000
11
420.0000000000
21
297.0000000000
0
LINE
5
207
100
AcDbEntity
8
0
100
AcDbLine
62
7
6
CONTINUOUS
10
420.0000000000
20
0.0000000000
11
420.0000000000
21
297.0000000000
0
LINE
5
208
100
AcDbEntity
8
0
100
AcDbLine
62
7
6
CONTINUOUS
10
83.2729062833
20
212.9905528320
11
90.7230016690
21
230.9766741532
0
LINE
5
209
100
AcDbEntity
8
0
100
AcDbLine
62
7
6
CONTINUOUS
10
96.0188218214
20
186.0338442511
11
126.0188218214
21
186.0338442511
0
LINE
5
20A
100
AcDbEntity
8
DEFAULT_2
100
AcDbLine
62
8
6
HIDDEN
10
105.0188218214
20
187.0338442511
11
117.0188218214
21
187.0338442511
0
LINE
5
20B
100
AcDbEntity
8
0
100
AcDbLine
62
7
6
CONTINUOUS
10
90.7357319965
20
193.0602806196
11
83.2729062833
21
211.0771356702
0
LINE
5
20C
100
AcDbEntity
8
0
100
AcDbLine
62
7
6
CONTINUOUS
10
91.0888348677
20
226.5542013831
11
91.0237122633
21
226.4007837958
0
LINE
5
20D
100
AcDbEntity
8
0
100
AcDbLine
62
7
6
CONTINUOUS
10
87.4582902052
20
218.0011770911
11
87.0675603010
21
217.0806720442
0
LINE
5
20E
100
AcDbEntity
8
0
100
AcDbLine
62
7
6
CONTINUOUS
10
90.6167012312
20
225.4419243521
11
90.5190182783
21
225.2117979712
0
LINE
5
20F
100
AcDbEntity
8
0
100
AcDbLine
62
7
6
CONTINUOUS
10
89.6561528303
20
223.1790163702
11
89.5096284010
21
222.8338272757
0
LINE
5
210
100
AcDbEntity
8
0
100
AcDbLine
62
7
6
CONTINUOUS
10
90.2910920241
20
224.6748373694
11
90.1445675947
21
224.3296473212
0
LINE
5
211
100
AcDbEntity
8
0
100
AcDbLine
62
7
6
CONTINUOUS
10
88.5979233839
20
220.6859829611
11
88.4513989546
21
220.3407938666
0
LINE
5
212
100
AcDbEntity
8
0
100
AcDbLine
62
7
6
CONTINUOUS
10
87.9629860975
20
219.1901624388
11
87.8164616682
21
218.8449728674
0
LINE
5
213
100
AcDbEntity
8
0
100
AcDbLine
62
7
6
CONTINUOUS
10
91.2522469618
20
226.2585118002
11
91.3173695662
21
226.4119293875
0
LINE
5
214
100
AcDbEntity
8
0
100
AcDbLine
62
7
6
CONTINUOUS
10
87.4100571730
20
217.2068803496
11
87.7193871596
21
217.9356134123
0
LINE
5
215
100
AcDbEntity
8
0
100
AcDbLine
62
7
6
CONTINUOUS
10
91.3018189528
20
225.5584948248
11
91.3832207777
21
225.7502663321
0
LINE
5
216
100
AcDbEntity
8
0
100
AcDbLine
62
7
6
CONTINUOUS
10
91.2354794600
20
226.7635433859
11
91.0888348677
21
226.5542013831
0
LINE
5
217
100
AcDbEntity
8
0
100
AcDbLine
62
7
6
CONTINUOUS
10
91.3173695662
20
226.4119293875
11
91.4477349379
21
226.5829174704
0
LINE
5
218
100
AcDbEntity
8
0
100
AcDbLine
62
7
6
CONTINUOUS
10
101.3167210676
20
234.2664072699
11
101.1362992384
21
234.1622412390
0
LINE
5
219
100
AcDbEntity
8
0
100
AcDbLine
62
7
6
CONTINUOUS
10
97.3113537886
20
231.9539072699
11
97.0948468306
21
231.8289072699
0
LINE
5
21A
100
AcDbEntity
8
0
100
AcDbLine
62
7
6
CONTINUOUS
10
92.0759919193
20
232.3296644035
11
110.0621132405
21
239.7797597892
0
LINE
5
21B
100
AcDbEntity
8
0
100
AcDbLine
62
7
6
CONTINUOUS
10
100.4412070372
20
233.6995089239
11
100.1981049635
21
233.6205752081
0
LINE
5
21C
100
AcDbEntity
8
0
100
AcDbLine
62
7
6
CONTINUOUS
10
88.4537106611
20
217.7597067541
11
88.4538308241
21
217.6238596625
0
LINE
5
21D
100
AcDbEntity
8
0
100
AcDbLine
62
7
6
CONTINUOUS
10
91.2198067763
20
226.0459559149
11
91.2522469618
21
226.2585118002
0
LINE
5
21E
100
AcDbEntity
8
0
100
AcDbLine
62
7
6
CONTINUOUS
10
91.0237122633
20
226.4007837958
11
90.9587117293
21
226.1115191168
0
LINE
5
21F
100
AcDbEntity
8
0
100
AcDbLine
62
7
6
CONTINUOUS
10
88.4538308241
20
217.6238596625
11
88.1445027449
21
216.8951270766
0
LINE
5
220
100
AcDbEntity
8
0
100
AcDbLine
62
7
6
CONTINUOUS
10
88.4382802107
20
216.7704255766
11
88.7150498488
21
217.4224498457
0
LINE
5
221
100
AcDbEntity
8
0
100
AcDbLine
62
7
6
CONTINUOUS
10
93.3894883253
20
226.2566063589
11
92.9336358168
21
225.1826842017
0
LINE
5
222
100
AcDbEntity
8
0
100
AcDbLine
62
7
6
CONTINUOUS
10
90.4433327772
20
218.6352327055
11
90.5735760786
21
218.9420674033
0
LINE
5
223
100
AcDbEntity
8
0
100
AcDbLine
62
7
6
CONTINUOUS
10
93.0482064345
20
224.7719319052
11
93.6343041517
21
226.1526892371
0
LINE
5
224
100
AcDbEntity
8
0
100
AcDbLine
62
7
6
CONTINUOUS
10
92.4946709730
20
223.4678833670
11
92.5923539259
21
223.6980097479
0
LINE
5
225
100
AcDbEntity
8
0
100
AcDbLine
62
7
6
CONTINUOUS
10
92.8202801802
20
224.2349703497
11
92.9179631331
21
224.4650967307
0
LINE
5
226
100
AcDbEntity
8
0
100
AcDbLine
62
7
6
CONTINUOUS
10
90.8015023329
20
219.4790284819
11
90.8991852858
21
219.7091548628
0
LINE
5
227
100
AcDbEntity
8
0
100
AcDbLine
62
7
6
CONTINUOUS
10
90.1177235701
20
217.8681452460
11
90.2154065230
21
218.0982716269
0
LINE
5
228
100
AcDbEntity
8
0
100
AcDbLine
62
7
6
CONTINUOUS
10
92.1365014174
20
222.6240866370
11
92.2667447188
21
222.9309218115
0
LINE
5
229
100
AcDbEntity
8
0
100
AcDbLine
62
7
6
CONTINUOUS
10
91.8108922102
20
221.8569996542
11
91.9085732557
21
222.0871260352
0
LINE
5
22A
100
AcDbEntity
8
0
100
AcDbLine
62
7
6
CONTINUOUS
10
89.3688222029
20
216.1038444228
11
89.4665051558
21
216.3339703268
0
LINE
5
22B
100
AcDbEntity
8
0
100
AcDbLine
62
7
6
CONTINUOUS
10
89.8735161879
20
217.2928297705
11
89.9874802687
21
217.5613100714
0
LINE
5
22C
100
AcDbEntity
8
0
100
AcDbLine
62
7
6
CONTINUOUS
10
87.5886555769
20
218.1721651739
11
87.4582902052
21
218.0011770911
0
LINE
5
22D
100
AcDbEntity
8
0
100
AcDbLine
62
7
6
CONTINUOUS
10
98.5895444014
20
232.3233492560
11
98.7433701613
21
232.4735815710
0
LINE
5
22E
100
AcDbEntity
8
0
100
AcDbLine
62
7
6
CONTINUOUS
10
100.1772576430
20
233.2400171942
11
100.3310834028
21
233.3902476019
0
LINE
5
22F
100
AcDbEntity
8
0
100
AcDbLine
62
7
6
CONTINUOUS
10
99.8812390425
20
230.9194014258
11
99.7274132826
21
230.7691710181
0
LINE
5
230
100
AcDbEntity
8
0
100
AcDbLine
62
7
6
CONTINUOUS
10
98.6103917219
20
232.7039072699
11
98.4204808333
21
232.5328428931
0
LINE
5
231
100
AcDbEntity
8
0
100
AcDbLine
62
7
6
CONTINUOUS
10
100.1981049635
20
233.6205752081
11
100.0081940748
21
233.4495089239
0
LINE
5
232
100
AcDbEntity
8
0
100
AcDbLine
62
7
6
CONTINUOUS
10
99.8603917219
20
230.5388434119
11
100.0503026106
21
230.7099096960
0
LINE
5
233
100
AcDbEntity
8
0
100
AcDbLine
62
7
6
CONTINUOUS
10
91.3985272505
20
226.8753941244
11
91.2354794600
21
226.7635433859
0
LINE
5
234
100
AcDbEntity
8
0
100
AcDbLine
62
7
6
CONTINUOUS
10
103.9889737227
20
234.8879301733
11
103.8085518934
21
234.7837641425
0
LINE
5
235
100
AcDbEntity
8
0
100
AcDbLine
62
7
6
CONTINUOUS
10
103.4837924101
20
234.5962641425
11
103.2672859289
21
234.4712641425
0
LINE
5
236
100
AcDbEntity
8
0
100
AcDbLine
62
7
6
CONTINUOUS
10
102.4012604811
20
233.9712641425
11
102.1847544768
21
233.8462641425
0
LINE
5
237
100
AcDbEntity
8
0
100
AcDbLine
62
7
6
CONTINUOUS
10
103.4002648451
20
234.2409365363
11
103.6167713263
21
234.3659365363
0
LINE
5
238
100
AcDbEntity
8
0
100
AcDbLine
62
7
6
CONTINUOUS
10
98.3902827360
20
230.9184820837
11
98.0294390776
21
230.7101481146
0
LINE
5
239
100
AcDbEntity
8
0
100
AcDbLine
62
7
6
CONTINUOUS
10
97.8129321196
20
230.5851481146
11
97.1994973280
21
230.2309820837
0
LINE
5
23A
100
AcDbEntity
8
0
100
AcDbLine
62
7
6
CONTINUOUS
10
98.1890135862
20
230.4337561316
11
98.5498572447
21
230.6420901007
0
LINE
5
23B
100
AcDbEntity
8
0
100
AcDbLine
62
7
6
CONTINUOUS
10
97.1064816572
20
229.8087561316
11
97.9725066282
21
230.3087561316
0
LINE
5
23C
100
AcDbEntity
8
0
100
AcDbLine
62
7
6
CONTINUOUS
10
104.2018776991
20
233.3525030798
11
104.0575400450
21
233.2691710181
0
LINE
5
23D
100
AcDbEntity
8
0
100
AcDbLine
62
7
6
CONTINUOUS
10
102.3862992384
20
231.9971773810
11
102.5667210676
21
232.1013434119
0
LINE
5
23E
100
AcDbEntity
8
0
100
AcDbLine
62
7
6
CONTINUOUS
10
103.1801558592
20
232.4555113501
11
103.3966618635
21
232.5805113501
0
LINE
5
23F
100
AcDbEntity
8
0
100
AcDbLine
62
7
6
CONTINUOUS
10
98.3448468306
20
229.6638434119
11
98.5613537886
21
229.7888434119
0
LINE
5
240
100
AcDbEntity
8
0
100
AcDbLine
62
7
6
CONTINUOUS
10
104.1183501341
20
232.9971773810
11
104.3348561384
21
233.1221773810
0
LINE
5
241
100
AcDbEntity
8
0
100
AcDbLine
62
7
6
CONTINUOUS
10
103.9721423247
20
232.6670839972
11
103.7917200186
21
232.5629160590
0
LINE
5
242
100
AcDbEntity
8
0
100
AcDbLine
62
7
6
CONTINUOUS
10
91.4477349379
20
226.5829174704
11
91.5945016005
21
226.6564133353
0
LINE
5
243
100
AcDbEntity
8
0
100
AcDbLine
62
7
6
CONTINUOUS
10
109.3273306944
20
235.6115153021
11
109.1882047512
21
235.5523131079
0
LINE
5
244
100
AcDbEntity
8
0
100
AcDbLine
62
7
6
CONTINUOUS
10
98.8534937956
20
232.7828428931
11
98.6103917219
21
232.7039072699
0
LINE
5
245
100
AcDbEntity
8
0
100
AcDbLine
62
7
6
CONTINUOUS
10
101.2050028898
20
231.3765757269
11
101.4481049635
21
231.4555113501
0
LINE
5
246
100
AcDbEntity
8
0
100
AcDbLine
62
7
6
CONTINUOUS
10
129.9160923475
20
192.1343057681
11
129.0852026329
21
192.1343057681
0
LINE
5
247
100
AcDbEntity
8
0
100
AcDbLine
62
7
6
CONTINUOUS
10
92.9524410100
20
192.1343057681
11
92.1215512953
21
192.1343057681
0
LINE
5
248
100
AcDbEntity
8
0
100
AcDbLine
62
7
6
CONTINUOUS
10
88.7148057081
20
217.6941430754
11
88.6820012190
21
217.8891275114
0
LINE
5
249
100
AcDbEntity
8
0
100
AcDbLine
62
7
6
CONTINUOUS
10
98.5344821074
20
232.1687205023
11
98.5895444014
21
232.3233492560
0
LINE
5
24A
100
AcDbEntity
8
0
100
AcDbLine
62
7
6
CONTINUOUS
10
98.4204808333
20
232.5328428931
11
98.3198462584
21
232.2904799170
0
LINE
5
24B
100
AcDbEntity
8
0
100
AcDbLine
62
7
6
CONTINUOUS
10
100.0081940748
20
233.4495089239
11
99.9075594999
21
233.2071478552
0
LINE
5
24C
100
AcDbEntity
8
0
100
AcDbLine
62
7
6
CONTINUOUS
10
103.2672859289
20
234.4712641425
11
103.1495443442
21
234.3418657965
0
LINE
5
24D
100
AcDbEntity
8
0
100
AcDbLine
62
7
6
CONTINUOUS
10
104.3196192839
20
233.4819014258
11
104.2018776991
21
233.3525030798
0
LINE
5
24E
100
AcDbEntity
8
0
100
AcDbLine
62
7
6
CONTINUOUS
10
104.3348561384
20
233.1221773810
11
104.4525982000
21
233.2515757269
0
LINE
5
24F
100
AcDbEntity
8
0
100
AcDbLine
62
7
6
CONTINUOUS
10
104.7717472174
20
232.6987936682
11
104.6540051558
21
232.5693953223
0
LINE
5
250
100
AcDbEntity
8
0
100
AcDbLine
62
7
6
CONTINUOUS
10
101.4689522841
20
231.8360693640
11
101.3151265242
21
231.6858370489
0
LINE
5
251
100
AcDbEntity
8
0
100
AcDbLine
62
7
6
CONTINUOUS
10
87.7193871596
20
217.9356134123
11
87.8171902754
21
218.0298931784
0
LINE
5
252
100
AcDbEntity
8
0
100
AcDbLine
62
7
6
CONTINUOUS
10
101.4481049635
20
231.4555113501
11
101.6380158522
21
231.6265757269
0
LINE
5
253
100
AcDbEntity
8
0
100
AcDbLine
62
7
6
CONTINUOUS
10
109.3737059691
20
235.3155024237
11
109.5592073061
21
235.4339068121
0
LINE
5
254
100
AcDbEntity
8
0
100
AcDbLine
62
7
6
CONTINUOUS
10
104.6540051558
20
232.5693953223
11
104.4374986746
21
232.4443953223
0
LINE
5
255
100
AcDbEntity
8
0
100
AcDbLine
62
7
6
CONTINUOUS
10
104.5438819983
20
232.2601340002
11
104.7603880026
21
232.3851340002
0
LINE
5
256
100
AcDbEntity
8
0
100
AcDbLine
62
7
6
CONTINUOUS
10
99.6172896483
20
230.4599096960
11
99.8603917219
21
230.5388434119
0
LINE
5
257
100
AcDbEntity
8
0
100
AcDbLine
62
7
6
CONTINUOUS
10
111.2750939884
20
234.3682615942
11
111.0895927184
21
234.3090594000
0
LINE
5
258
100
AcDbEntity
8
0
100
AcDbLine
62
7
6
CONTINUOUS
10
113.5011092283
20
234.3682615942
11
113.3156078913
21
234.3090594000
0
LINE
5
259
100
AcDbEntity
8
0
100
AcDbLine
62
7
6
CONTINUOUS
10
97.0948468306
20
231.8289072699
11
96.9469071486
21
230.0851481146
0
LINE
5
25A
100
AcDbEntity
8
0
100
AcDbLine
62
7
6
CONTINUOUS
10
97.1994973280
20
230.2309820837
11
97.3076134779
21
231.4603865332
0
LINE
5
25B
100
AcDbEntity
8
0
100
AcDbLine
62
7
6
CONTINUOUS
10
98.3198462584
20
232.2904799170
11
98.2913800337
21
232.0897848791
0
LINE
5
25C
100
AcDbEntity
8
0
100
AcDbLine
62
7
6
CONTINUOUS
10
100.1221953489
20
233.0853865332
11
100.1772576430
21
233.2400171942
0
LINE
5
25D
100
AcDbEntity
8
0
100
AcDbLine
62
7
6
CONTINUOUS
10
99.9363003828
20
231.0740320868
11
99.8812390425
21
230.9194014258
0
LINE
5
25E
100
AcDbEntity
8
0
100
AcDbLine
62
7
6
CONTINUOUS
10
101.5240136244
20
231.9906981177
11
101.4689522841
21
231.8360693640
0
LINE
5
25F
100
AcDbEntity
8
0
100
AcDbLine
62
7
6
CONTINUOUS
10
100.0503026106
20
230.7099096960
11
100.1509371855
21
230.9522707648
0
LINE
5
260
100
AcDbEntity
8
0
100
AcDbLine
62
7
6
CONTINUOUS
10
101.6380158522
20
231.6265757269
11
101.7386504271
21
231.8689387030
0
LINE
5
261
100
AcDbEntity
8
0
100
AcDbLine
62
7
6
CONTINUOUS
10
103.3091188528
20
234.0654738135
11
103.4002648451
21
234.2409365363
0
LINE
5
262
100
AcDbEntity
8
0
100
AcDbLine
62
7
6
CONTINUOUS
10
104.8781300642
20
232.5145323462
11
104.9597874739
21
232.6230986304
0
LINE
5
263
100
AcDbEntity
8
0
100
AcDbLine
62
7
6
CONTINUOUS
10
109.4200813629
20
235.7299196906
11
109.3273306944
21
235.6115153021
0
LINE
5
264
100
AcDbEntity
8
0
100
AcDbLine
62
7
6
CONTINUOUS
10
104.7603880026
20
232.3851340002
11
104.8781300642
21
232.5145323462
0
LINE
5
265
100
AcDbEntity
8
0
100
AcDbLine
62
7
6
CONTINUOUS
10
111.4142199316
20
234.4866678900
11
111.2750939884
21
234.3682615942
0
LINE
5
266
100
AcDbEntity
8
0
100
AcDbLine
62
7
6
CONTINUOUS
10
111.3214692928
20
234.0130465216
11
111.5069705703
21
234.1314509100
0
LINE
5
267
100
AcDbEntity
8
0
100
AcDbLine
62
7
6
CONTINUOUS
10
113.5474845030
20
234.0130465216
11
113.7329858400
21
234.1314509100
0
LINE
5
268
100
AcDbEntity
8
0
100
AcDbLine
62
7
6
CONTINUOUS
10
88.3883458235
20
217.8779823965
11
88.4537106611
21
217.7597067541
0
LINE
5
269
100
AcDbEntity
8
0
100
AcDbLine
62
7
6
CONTINUOUS
10
90.9587117293
20
226.1115191168
11
90.9915162184
21
225.9165346808
0
LINE
5
26A
100
AcDbEntity
8
0
100
AcDbLine
62
7
6
CONTINUOUS
10
96.0188218214
20
186.0338442511
11
96.0188218214
21
188.1343057681
0
LINE
5
26B
100
AcDbEntity
8
0
100
AcDbLine
62
7
6
CONTINUOUS
10
99.9075594999
20
233.2071478552
11
99.8790932753
21
233.0064509100
0
LINE
5
26C
100
AcDbEntity
8
0
100
AcDbLine
62
7
6
CONTINUOUS
10
100.1509371855
20
230.9522707648
11
100.1794034102
21
231.1529677100
0
LINE
5
26D
100
AcDbEntity
8
0
100
AcDbLine
62
7
6
CONTINUOUS
10
103.1495443442
20
234.3418657965
11
103.0944825270
21
234.1872351355
0
LINE
5
26E
100
AcDbEntity
8
0
100
AcDbLine
62
7
6
CONTINUOUS
10
104.3746811011
20
233.6365320868
11
104.3196192839
21
233.4819014258
0
LINE
5
26F
100
AcDbEntity
8
0
100
AcDbLine
62
7
6
CONTINUOUS
10
104.4525982000
20
233.2515757269
11
104.4981709578
21
233.3393080420
0
LINE
5
270
100
AcDbEntity
8
0
100
AcDbLine
62
7
6
CONTINUOUS
10
109.5592073061
20
235.4339068121
11
109.6983332493
21
235.6707174963
0
LINE
5
271
100
AcDbEntity
8
0
100
AcDbLine
62
7
6
CONTINUOUS
10
111.5069705703
20
234.1314509100
11
111.6924718477
21
234.3682615942
0
LINE
5
272
100
AcDbEntity
8
0
100
AcDbLine
62
7
6
CONTINUOUS
10
113.6402350523
20
234.4866678900
11
113.5011092283
21
234.3682615942
0
LINE
5
273
100
AcDbEntity
8
0
100
AcDbLine
62
7
6
CONTINUOUS
10
87.8006669142
20
218.2632320113
11
87.5886555769
21
218.1721651739
0
LINE
5
274
100
AcDbEntity
8
DEFAULT_2
100
AcDbLine
62
8
6
HIDDEN
10
117.0188218214
20
187.0338442511
11
118.0188218214
21
186.0338442511
0
LINE
5
275
100
AcDbEntity
8
0
100
AcDbLine
62
7
6
CONTINUOUS
10
88.6820012190
20
217.8891275114
11
88.5349904158
21
218.0873248762
0
LINE
5
276
100
AcDbEntity
8
0
100
AcDbLine
62
7
6
CONTINUOUS
10
91.2688923933
20
225.8893253989
11
91.2198067763
21
226.0459559149
0
LINE
5
277
100
AcDbEntity
8
0
100
AcDbLine
62
7
6
CONTINUOUS
10
98.5497189619
20
231.8089945502
11
98.5344821074
21
232.1687205023
0
LINE
5
278
100
AcDbEntity
8
0
100
AcDbLine
62
7
6
CONTINUOUS
10
99.9210635283
20
231.4337561316
11
99.9363003828
21
231.0740320868
0
LINE
5
279
100
AcDbEntity
8
0
100
AcDbLine
62
7
6
CONTINUOUS
10
100.1374322035
20
232.7256624884
11
100.1221953489
21
233.0853865332
0
LINE
5
27A
100
AcDbEntity
8
0
100
AcDbLine
62
7
6
CONTINUOUS
10
102.1847544768
20
233.8462641425
11
102.1145936110
21
232.8844530768
0
LINE
5
27B
100
AcDbEntity
8
0
100
AcDbLine
62
7
6
CONTINUOUS
10
103.0944825270
20
234.1872351355
11
103.0660167792
21
233.9865381903
0
LINE
5
27C
100
AcDbEntity
8
0
100
AcDbLine
62
7
6
CONTINUOUS
10
101.7386504271
20
231.8689387030
11
101.7671166517
21
232.0696337408
0
LINE
5
27D
100
AcDbEntity
8
0
100
AcDbLine
62
7
6
CONTINUOUS
10
102.2741681196
20
232.6080610937
11
102.3216115095
21
232.9425547308
0
LINE
5
27E
100
AcDbEntity
8
0
100
AcDbLine
62
7
6
CONTINUOUS
10
104.9597874739
20
232.6230986304
11
105.0148492911
21
232.7777292914
0
LINE
5
27F
100
AcDbEntity
8
0
100
AcDbLine
62
7
6
CONTINUOUS
10
113.7329858400
20
234.1314509100
11
113.9184869387
21
234.3682615942
0
LINE
5
280
100
AcDbEntity
8
0
100
AcDbLine
62
7
6
CONTINUOUS
10
90.5190182783
20
225.2117979712
11
90.7640763380
21
224.8361866660
0
LINE
5
281
100
AcDbEntity
8
0
100
AcDbLine
62
7
6
CONTINUOUS
10
91.1557808973
20
224.6699183173
11
90.9107228377
21
225.0455296225
0
LINE
5
282
100
AcDbEntity
8
0
100
AcDbLine
62
7
6
CONTINUOUS
10
90.9915162184
20
225.9165346808
11
91.1222458937
21
225.6799833960
0
LINE
5
283
100
AcDbEntity
8
0
100
AcDbLine
62
7
6
CONTINUOUS
10
92.0351697065
20
226.4693606085
11
92.8033906080
21
224.8758490271
0
LINE
5
284
100
AcDbEntity
8
0
100
AcDbLine
62
7
6
CONTINUOUS
10
92.9336358168
20
225.1826842017
11
92.2634602644
21
226.5987818426
0
LINE
5
285
100
AcDbEntity
8
0
100
AcDbLine
62
7
6
CONTINUOUS
10
101.5087767698
20
232.3504240698
11
101.5240136244
21
231.9906981177
0
LINE
5
286
100
AcDbEntity
8
0
100
AcDbLine
62
7
6
CONTINUOUS
10
102.3500767805
20
233.1432497687
11
102.4012604811
21
233.9712641425
0
LINE
5
287
100
AcDbEntity
8
0
100
AcDbLine
62
7
6
CONTINUOUS
10
104.4981709578
20
233.3393080420
11
104.5171485998
21
233.4731047339
0
LINE
5
288
100
AcDbEntity
8
0
100
AcDbLine
62
7
6
CONTINUOUS
10
104.8002129652
20
232.8994887061
11
104.7717472174
21
232.6987936682
0
LINE
5
289
100
AcDbEntity
8
0
100
AcDbLine
62
7
6
CONTINUOUS
10
111.5069705703
20
234.6642744727
11
111.4142199316
21
234.4866678900
0
LINE
5
28A
100
AcDbEntity
8
0
100
AcDbLine
62
7
6
CONTINUOUS
10
113.7329858400
20
234.6642744727
11
113.6402350523
21
234.4866678900
0
LINE
5
28B
100
AcDbEntity
8
0
100
AcDbLine
62
7
6
CONTINUOUS
10
88.2577363112
20
217.9786875433
11
88.3883458235
21
217.8779823965
0
LINE
5
28C
100
AcDbEntity
8
0
100
AcDbLine
62
7
6
CONTINUOUS
10
88.5349904158
20
218.0873248762
11
88.4043828108
21
218.1880300230
0
LINE
5
28D
100
AcDbEntity
8
0
100
AcDbLine
62
7
6
CONTINUOUS
10
88.4513989546
20
220.3407938666
11
90.2636395552
21
218.8925678915
0
LINE
5
28E
100
AcDbEntity
8
0
100
AcDbLine
62
7
6
CONTINUOUS
10
90.5735760786
20
218.9420674033
11
88.9898701765
21
220.2480204291
0
LINE
5
28F
100
AcDbEntity
8
0
100
AcDbLine
62
7
6
CONTINUOUS
10
98.2913800337
20
232.0897848791
11
98.3255950071
21
231.8638575262
0
LINE
5
290
100
AcDbEntity
8
0
100
AcDbLine
62
7
6
CONTINUOUS
10
99.8790932753
20
233.0064509100
11
99.9133082487
21
232.7805235571
0
LINE
5
291
100
AcDbEntity
8
0
100
AcDbLine
62
7
6
CONTINUOUS
10
100.1794034102
20
231.1529677100
11
100.1451884367
21
231.3788950629
0
LINE
5
292
100
AcDbEntity
8
0
100
AcDbLine
62
7
6
CONTINUOUS
10
103.3167372801
20
233.8856108374
11
103.3091188528
21
234.0654738135
0
LINE
5
293
100
AcDbEntity
8
0
100
AcDbLine
62
7
6
CONTINUOUS
10
104.3670626738
20
233.8163950629
11
104.3746811011
21
233.6365320868
0
LINE
5
294
100
AcDbEntity
8
0
100
AcDbLine
62
7
6
CONTINUOUS
10
105.0148492911
20
232.7777292914
11
105.0072308638
21
232.9575903601
0
LINE
5
295
100
AcDbEntity
8
DEFAULT_2
100
AcDbLine
62
8
6
HIDDEN
10
105.0188218214
20
198.2861171662
11
105.0188218214
21
187.0338442511
0
LINE
5
296
100
AcDbEntity
8
0
100
AcDbLine
62
7
6
CONTINUOUS
10
109.4664566376
20
235.9075281805
11
109.4200813629
21
235.7299196906
0
LINE
5
297
100
AcDbEntity
8
0
100
AcDbLine
62
7
6
CONTINUOUS
10
109.6983332493
20
235.6707174963
11
109.7447085240
21
235.8483259863
0
LINE
5
298
100
AcDbEntity
8
0
100
AcDbLine
62
7
6
CONTINUOUS
10
111.6924718477
20
234.3682615942
11
111.7852224567
21
234.6050722784
0
LINE
5
299
100
AcDbEntity
8
0
100
AcDbLine
62
7
6
CONTINUOUS
10
113.9184869387
20
234.3682615942
11
114.0112377264
21
234.6050722784
0
LINE
5
29A
100
AcDbEntity
8
0
100
AcDbLine
62
7
6
CONTINUOUS
10
87.0675603010
20
217.0806720442
11
89.3688222029
21
216.1038444228
0
LINE
5
29B
100
AcDbEntity
8
0
100
AcDbLine
62
7
6
CONTINUOUS
10
89.4665051558
20
216.3339703268
11
88.4382802107
21
216.7704255766
0
LINE
5
29C
100
AcDbEntity
8
0
100
AcDbLine
62
7
6
CONTINUOUS
10
88.1445027449
20
216.8951270766
11
87.4100571730
21
217.2068803496
0
LINE
5
29D
100
AcDbEntity
8
0
100
AcDbLine
62
7
6
CONTINUOUS
10
91.3832207777
20
225.7502663321
11
91.2688923933
21
225.8893253989
0
LINE
5
29E
100
AcDbEntity
8
0
100
AcDbLine
62
7
6
CONTINUOUS
10
92.2634602644
20
226.5987818426
11
92.1491318800
21
226.7378418631
0
LINE
5
29F
100
AcDbEntity
8
0
100
AcDbLine
62
7
6
CONTINUOUS
10
98.3692971327
20
231.7048285193
11
98.4661913969
21
231.4536688513
0
LINE
5
2A0
100
AcDbEntity
8
0
100
AcDbLine
62
7
6
CONTINUOUS
10
98.3255950071
20
231.8638575262
11
98.3692971327
21
231.7048285193
0
LINE
5
2A1
100
AcDbEntity
8
0
100
AcDbLine
62
7
6
CONTINUOUS
10
100.1451884367
20
231.3788950629
11
100.1014863112
21
231.5379240698
0
LINE
5
2A2
100
AcDbEntity
8
0
100
AcDbLine
62
7
6
CONTINUOUS
10
99.9133082487
20
232.7805235571
11
99.9570103743
21
232.6214945502
0
LINE
5
2A3
100
AcDbEntity
8
0
100
AcDbLine
62
7
6
CONTINUOUS
10
101.7671166517
20
232.0696337408
11
101.7329016783
21
232.2955610937
0
LINE
5
2A4
100
AcDbEntity
8
0
100
AcDbLine
62
7
6
CONTINUOUS
10
108.0288218119
20
236.7363627142
11
108.0288218119
21
233.9538443274
0
LINE
5
2A5
100
AcDbEntity
8
0
100
AcDbLine
62
7
6
CONTINUOUS
10
108.3070736982
20
233.9538443274
11
108.3070736982
21
235.1970980353
0
LINE
5
2A6
100
AcDbEntity
8
0
100
AcDbLine
62
7
6
CONTINUOUS
10
108.3070736982
20
235.5523131079
11
108.3070736982
21
236.4403498358
0
LINE
5
2A7
100
AcDbEntity
8
0
100
AcDbLine
62
7
6
CONTINUOUS
10
111.7852224567
20
234.6050722784
11
111.8315977909
21
234.9010851569
0
LINE
5
2A8
100
AcDbEntity
8
0
100
AcDbLine
62
7
6
CONTINUOUS
10
111.5533459046
20
234.9010851569
11
111.5069705703
21
234.6642744727
0
LINE
5
2A9
100
AcDbEntity
8
0
100
AcDbLine
62
7
6
CONTINUOUS
10
88.1108475783
20
218.0410382933
11
88.2577363112
21
217.9786875433
0
LINE
5
2AA
100
AcDbEntity
8
0
100
AcDbLine
62
7
6
CONTINUOUS
10
88.4043828108
20
218.1880300230
11
88.2085305311
21
218.2711646742
0
LINE
5
2AB
100
AcDbEntity
8
0
100
AcDbLine
62
7
6
CONTINUOUS
10
87.8164616682
20
218.8449728674
11
90.1177235701
21
217.8681452460
0
LINE
5
2AC
100
AcDbEntity
8
0
100
AcDbLine
62
7
6
CONTINUOUS
10
90.2154065230
20
218.0982716269
11
88.4037743666
21
218.8672635741
0
LINE
5
2AD
100
AcDbEntity
8
0
100
AcDbLine
62
7
6
CONTINUOUS
10
90.1445675947
20
224.3296473212
11
91.9568081953
21
222.8814222998
0
LINE
5
2AE
100
AcDbEntity
8
0
100
AcDbLine
62
7
6
CONTINUOUS
10
92.2667447188
20
222.9309218115
11
90.6830388167
21
224.2368748373
0
LINE
5
2AF
100
AcDbEntity
8
0
100
AcDbLine
62
7
6
CONTINUOUS
10
91.8718777754
20
226.6292040533
11
92.0351697065
21
226.4693606085
0
LINE
5
2B0
100
AcDbEntity
8
0
100
AcDbLine
62
7
6
CONTINUOUS
10
96.9469071486
20
230.0851481146
11
97.1064816572
21
229.8087561316
0
LINE
5
2B1
100
AcDbEntity
8
0
100
AcDbLine
62
7
6
CONTINUOUS
10
97.3076134779
20
231.4603865332
11
97.8129321196
21
230.5851481146
0
LINE
5
2B2
100
AcDbEntity
8
0
100
AcDbLine
62
7
6
CONTINUOUS
10
97.9725066282
20
230.3087561316
11
98.3448468306
21
229.6638434119
0
LINE
5
2B3
100
AcDbEntity
8
0
100
AcDbLine
62
7
6
CONTINUOUS
10
98.5613537886
20
229.7888434119
11
98.1890135862
21
230.4337561316
0
LINE
5
2B4
100
AcDbEntity
8
0
100
AcDbLine
62
7
6
CONTINUOUS
10
98.0294390776
20
230.7101481146
11
97.3113537886
21
231.9539072699
0
LINE
5
2B5
100
AcDbEntity
8
0
100
AcDbLine
62
7
6
CONTINUOUS
10
98.6732092955
20
231.5117705054
11
98.5497189619
21
231.8089945502
0
LINE
5
2B6
100
AcDbEntity
8
0
100
AcDbLine
62
7
6
CONTINUOUS
10
99.7975741484
20
231.7309820837
11
99.9210635283
21
231.4337561316
0
LINE
5
2B7
100
AcDbEntity
8
0
100
AcDbLine
62
7
6
CONTINUOUS
10
100.2609225371
20
232.4284365363
11
100.1374322035
21
232.7256624884
0
LINE
5
2B8
100
AcDbEntity
8
0
100
AcDbLine
62
7
6
CONTINUOUS
10
100.1014863112
20
231.5379240698
11
100.0045920469
21
231.7890818304
0
LINE
5
2B9
100
AcDbEntity
8
0
100
AcDbLine
62
7
6
CONTINUOUS
10
99.9570103743
20
232.6214945502
11
100.0539046385
21
232.3703367895
0
LINE
5
2BA
100
AcDbEntity
8
0
100
AcDbLine
62
7
6
CONTINUOUS
10
101.7329016783
20
232.2955610937
11
101.6891995527
21
232.4545901007
0
LINE
5
2BB
100
AcDbEntity
8
0
100
AcDbLine
62
7
6
CONTINUOUS
10
103.0660167792
20
233.9865381903
11
103.0831237890
21
233.8735754675
0
LINE
5
2BC
100
AcDbEntity
8
0
100
AcDbLine
62
7
6
CONTINUOUS
10
104.5171485998
20
233.4731047339
11
104.5000411131
21
233.5860693640
0
LINE
5
2BD
100
AcDbEntity
8
0
100
AcDbLine
62
7
6
CONTINUOUS
10
104.7831059553
20
233.0124533362
11
104.8002129652
21
232.8994887061
0
LINE
5
2BE
100
AcDbEntity
8
0
100
AcDbLine
62
7
6
CONTINUOUS
10
109.4664566376
20
236.0851347632
11
109.4664566376
21
235.9075281805
0
LINE
5
2BF
100
AcDbEntity
8
0
100
AcDbLine
62
7
6
CONTINUOUS
10
109.7447085240
20
235.8483259863
11
109.7447085240
21
236.0851347632
0
LINE
5
2C0
100
AcDbEntity
8
0
100
AcDbLine
62
7
6
CONTINUOUS
10
110.1620864131
20
236.7363627142
11
110.1620864131
21
234.9010851569
0
LINE
5
2C1
100
AcDbEntity
8
0
100
AcDbLine
62
7
6
CONTINUOUS
10
110.4403382995
20
234.9010851569
11
110.4403382995
21
236.7363627142
0
LINE
5
2C2
100
AcDbEntity
8
DEFAULT_1
100
AcDbLine
62
2
6
CENTER
10
111.0188218214
20
212.0338442511
11
111.0188218214
21
182.8071126002
0
LINE
5
2C3
100
AcDbEntity
8
DEFAULT_1
100
AcDbLine
62
2
6
CENTER
10
111.0188218214
20
212.0338442511
11
111.0188218214
21
230.0338442511
0
LINE
5
2C4
100
AcDbEntity
8
0
100
AcDbLine
62
7
6
CONTINUOUS
10
114.0112377264
20
234.6050722784
11
114.0576130011
21
234.9010851569
0
LINE
5
2C5
100
AcDbEntity
8
0
100
AcDbLine
62
7
6
CONTINUOUS
10
113.7793611147
20
234.9010851569
11
113.7329858400
21
234.6642744727
0
LINE
5
2C6
100
AcDbEntity
8
DEFAULT_1
100
AcDbLine
62
2
6
CENTER
10
111.0188218214
20
212.0338442511
11
93.0188218214
21
212.0338442511
0
LINE
5
2C7
100
AcDbEntity
8
DEFAULT_1
100
AcDbLine
62
2
6
CENTER
10
111.0188218214
20
212.0338442511
11
129.0188218214
21
212.0338442511
0
LINE
5
2C8
100
AcDbEntity
8
0
100
AcDbLine
62
7
6
CONTINUOUS
10
88.9898701765
20
220.2480204291
11
90.8015023329
21
219.4790284819
0
LINE
5
2C9
100
AcDbEntity
8
0
100
AcDbLine
62
7
6
CONTINUOUS
10
90.8991852858
20
219.7091548628
11
88.5979233839
21
220.6859829611
0
LINE
5
2CA
100
AcDbEntity
8
0
100
AcDbLine
62
7
6
CONTINUOUS
10
91.1222458937
20
225.6799833960
11
91.3018189528
21
225.5584948248
0
LINE
5
2CB
100
AcDbEntity
8
0
100
AcDbLine
62
7
6
CONTINUOUS
10
98.5498572447
20
230.6420901007
11
98.3902827360
21
230.9184820837
0
LINE
5
2CC
100
AcDbEntity
8
0
100
AcDbLine
62
7
6
CONTINUOUS
10
98.4661913969
20
231.4536688513
11
98.7055531599
21
231.0390818304
0
LINE
5
2CD
100
AcDbEntity
8
0
100
AcDbLine
62
7
6
CONTINUOUS
10
98.8593798735
20
231.1893141455
11
98.6732092955
21
231.5117705054
0
LINE
5
2CE
100
AcDbEntity
8
0
100
AcDbLine
62
7
6
CONTINUOUS
10
99.6114035704
20
232.0534365363
11
99.7975741484
21
231.7309820837
0
LINE
5
2CF
100
AcDbEntity
8
0
100
AcDbLine
62
7
6
CONTINUOUS
10
100.0045920469
20
231.7890818304
11
99.7652302839
21
232.2036688513
0
LINE
5
2D0
100
AcDbEntity
8
0
100
AcDbLine
62
7
6
CONTINUOUS
10
100.0539046385
20
232.3703367895
11
100.2932664015
21
231.9557497687
0
LINE
5
2D1
100
AcDbEntity
8
0
100
AcDbLine
62
7
6
CONTINUOUS
10
101.3852873900
20
232.6476481146
11
101.5087767698
21
232.3504240698
0
LINE
5
2D2
100
AcDbEntity
8
0
100
AcDbLine
62
7
6
CONTINUOUS
10
101.6891995527
20
232.4545901007
11
101.5923052885
21
232.7057497687
0
LINE
5
2D3
100
AcDbEntity
8
0
100
AcDbLine
62
7
6
CONTINUOUS
10
103.0831237890
20
233.8735754675
11
103.1534224608
21
233.6684820837
0
LINE
5
2D4
100
AcDbEntity
8
0
100
AcDbLine
62
7
6
CONTINUOUS
10
105.0072308638
20
232.9575903601
11
104.8932291128
21
233.3217146582
0
LINE
5
2D5
100
AcDbEntity
8
0
100
AcDbLine
62
7
6
CONTINUOUS
10
103.3604398825
20
233.7265818304
11
103.3167372801
21
233.8856108374
0
LINE
5
2D6
100
AcDbEntity
8
0
100
AcDbLine
62
7
6
CONTINUOUS
10
111.5533459046
20
236.7363627142
11
111.5533459046
21
234.9010851569
0
LINE
5
2D7
100
AcDbEntity
8
0
100
AcDbLine
62
7
6
CONTINUOUS
10
111.8315977909
20
234.9010851569
11
111.8315977909
21
236.7363627142
0
LINE
5
2D8
100
AcDbEntity
8
0
100
AcDbLine
62
7
6
CONTINUOUS
10
112.2026003458
20
236.7363627142
11
112.2026003458
21
233.9538443274
0
LINE
5
2D9
100
AcDbEntity
8
0
100
AcDbLine
62
7
6
CONTINUOUS
10
112.4808522322
20
234.3090594000
11
112.4808522322
21
236.3811476416
0
LINE
5
2DA
100
AcDbEntity
8
0
100
AcDbLine
62
7
6
CONTINUOUS
10
113.7793611147
20
235.7891218848
11
113.7793611147
21
234.9010851569
0
LINE
5
2DB
100
AcDbEntity
8
0
100
AcDbLine
62
7
6
CONTINUOUS
10
89.9874802687
20
217.5613100714
11
88.7148057081
21
217.6941430754
0
LINE
5
2DC
100
AcDbEntity
8
0
100
AcDbLine
62
7
6
CONTINUOUS
10
88.7150498488
20
217.4224498457
11
89.8735161879
21
217.2928297705
0
LINE
5
2DD
100
AcDbEntity
8
0
100
AcDbLine
62
7
6
CONTINUOUS
10
87.9476777174
20
218.0650346465
11
88.1108475783
21
218.0410382933
0
LINE
5
2DE
100
AcDbEntity
8
0
100
AcDbLine
62
7
6
CONTINUOUS
10
88.2085305311
20
218.2711646742
11
88.0453606703
21
218.2951605505
0
LINE
5
2DF
100
AcDbEntity
8
0
100
AcDbLine
62
7
6
CONTINUOUS
10
89.5096284010
20
222.8338272757
11
91.8108922102
21
221.8569996542
0
LINE
5
2E0
100
AcDbEntity
8
0
100
AcDbLine
62
7
6
CONTINUOUS
10
91.9085732557
20
222.0871260352
11
90.0969430067
21
222.8561175055
0
LINE
5
2E1
100
AcDbEntity
8
0
100
AcDbLine
62
7
6
CONTINUOUS
10
90.6830388167
20
224.2368748373
11
92.4946709730
21
223.4678833670
0
LINE
5
2E2
100
AcDbEntity
8
0
100
AcDbLine
62
7
6
CONTINUOUS
10
92.5923539259
20
223.6980097479
11
90.2910920241
21
224.6748373694
0
LINE
5
2E3
100
AcDbEntity
8
0
100
AcDbLine
62
7
6
CONTINUOUS
10
92.1491318800
20
226.7378418631
11
91.9695607283
21
226.8593304343
0
LINE
5
2E4
100
AcDbEntity
8
0
100
AcDbLine
62
7
6
CONTINUOUS
10
98.7055531599
20
231.0390818304
11
98.8746167280
21
230.8295901007
0
LINE
5
2E5
100
AcDbEntity
8
0
100
AcDbLine
62
7
6
CONTINUOUS
10
99.0550385573
20
230.9337561316
11
98.8593798735
21
231.1893141455
0
LINE
5
2E6
100
AcDbEntity
8
0
100
AcDbLine
62
7
6
CONTINUOUS
10
99.4157448866
20
232.3089945502
11
99.6114035704
21
232.0534365363
0
LINE
5
2E7
100
AcDbEntity
8
0
100
AcDbLine
62
7
6
CONTINUOUS
10
100.4470931151
20
232.1059820837
11
100.2609225371
21
232.4284365363
0
LINE
5
2E8
100
AcDbEntity
8
0
100
AcDbLine
62
7
6
CONTINUOUS
10
101.1991168120
20
232.9701044745
11
101.3852873900
21
232.6476481146
0
LINE
5
2E9
100
AcDbEntity
8
0
100
AcDbLine
62
7
6
CONTINUOUS
10
101.5923052885
20
232.7057497687
11
101.3529435255
21
233.1203367895
0
LINE
5
2EA
100
AcDbEntity
8
0
100
AcDbLine
62
7
6
CONTINUOUS
10
101.1362992384
20
234.1622412390
11
102.3862992384
21
231.9971773810
0
LINE
5
2EB
100
AcDbEntity
8
0
100
AcDbLine
62
7
6
CONTINUOUS
10
102.5667210676
20
232.1013434119
11
102.2741681196
21
232.6080610937
0
LINE
5
2EC
100
AcDbEntity
8
0
100
AcDbLine
62
7
6
CONTINUOUS
10
102.1145936110
20
232.8844530768
11
101.3167210676
21
234.2664072699
0
LINE
5
2ED
100
AcDbEntity
8
0
100
AcDbLine
62
7
6
CONTINUOUS
10
104.7128072836
20
233.2175467200
11
104.7831059553
21
233.0124533362
0
LINE
5
2EE
100
AcDbEntity
8
0
100
AcDbLine
62
7
6
CONTINUOUS
10
110.1620864131
20
234.9010851569
11
110.2084616878
21
234.6050722784
0
LINE
5
2EF
100
AcDbEntity
8
0
100
AcDbLine
62
7
6
CONTINUOUS
10
114.0576130011
20
234.9010851569
11
114.0576130011
21
235.7891218848
0
LINE
5
2F0
100
AcDbEntity
8
0
100
AcDbLine
62
7
6
CONTINUOUS
10
88.4037743666
20
218.8672635741
11
90.4433327772
21
218.6352327055
0
LINE
5
2F1
100
AcDbEntity
8
0
100
AcDbLine
62
7
6
CONTINUOUS
10
90.2636395552
20
218.8925678915
11
87.9629860975
21
219.1901624388
0
LINE
5
2F2
100
AcDbEntity
8
0
100
AcDbLine
62
7
6
CONTINUOUS
10
90.7640763380
20
224.8361866660
11
91.1557808973
21
224.6699183173
0
LINE
5
2F3
100
AcDbEntity
8
0
100
AcDbLine
62
7
6
CONTINUOUS
10
90.9107228377
20
225.0455296225
11
92.8202801802
21
224.2349703497
0
LINE
5
2F4
100
AcDbEntity
8
0
100
AcDbLine
62
7
6
CONTINUOUS
10
92.9179631331
20
224.4650967307
11
90.6167012312
21
225.4419243521
0
LINE
5
2F5
100
AcDbEntity
8
0
100
AcDbLine
62
7
6
CONTINUOUS
10
92.8033906080
20
224.8758490271
11
93.0482064345
21
224.7719319052
0
LINE
5
2F6
100
AcDbEntity
8
0
100
AcDbLine
62
7
6
CONTINUOUS
10
91.7739525892
20
226.6707709021
11
91.8718777754
21
226.6292040533
0
LINE
5
2F7
100
AcDbEntity
8
0
100
AcDbLine
62
7
6
CONTINUOUS
10
93.6343041517
20
226.1526892371
11
93.3894883253
21
226.2566063589
0
LINE
5
2F8
100
AcDbEntity
8
0
100
AcDbLine
62
7
6
CONTINUOUS
10
91.9695607283
20
226.8593304343
11
91.8716336348
21
226.9008972830
0
LINE
5
2F9
100
AcDbEntity
8
0
100
AcDbLine
62
7
6
CONTINUOUS
10
98.8746167280
20
230.8295901007
11
98.9904881575
21
230.7122271246
0
LINE
5
2FA
100
AcDbEntity
8
0
100
AcDbLine
62
7
6
CONTINUOUS
10
99.5961667158
20
232.4131624884
11
99.4802952864
21
232.5305235571
0
LINE
5
2FB
100
AcDbEntity
8
0
100
AcDbLine
62
7
6
CONTINUOUS
10
99.7652302839
20
232.2036688513
11
99.5961667158
21
232.4131624884
0
LINE
5
2FC
100
AcDbEntity
8
0
100
AcDbLine
62
7
6
CONTINUOUS
10
100.2932664015
20
231.9557497687
11
100.4623299696
21
231.7462561316
0
LINE
5
2FD
100
AcDbEntity
8
0
100
AcDbLine
62
7
6
CONTINUOUS
10
101.3529435255
20
233.1203367895
11
101.1838799574
21
233.3298285193
0
LINE
5
2FE
100
AcDbEntity
8
0
100
AcDbLine
62
7
6
CONTINUOUS
10
100.6427517988
20
231.8504240698
11
100.4470931151
21
232.1059820837
0
LINE
5
2FF
100
AcDbEntity
8
0
100
AcDbLine
62
7
6
CONTINUOUS
10
101.0034581282
20
233.2256624884
11
101.1991168120
21
232.9701044745
0
LINE
5
300
100
AcDbEntity
8
0
100
AcDbLine
62
7
6
CONTINUOUS
10
103.1534224608
20
233.6684820837
11
103.3661881544
21
233.2999594397
0
LINE
5
301
100
AcDbEntity
8
0
100
AcDbLine
62
7
6
CONTINUOUS
10
103.5200143912
20
233.4501917548
11
103.3604398825
21
233.7265818304
0
LINE
5
302
100
AcDbEntity
8
0
100
AcDbLine
62
7
6
CONTINUOUS
10
103.8085518934
20
234.7837641425
11
103.9681264021
21
234.5073721594
0
LINE
5
303
100
AcDbEntity
8
0
100
AcDbLine
62
7
6
CONTINUOUS
10
104.5000411131
20
233.5860693640
11
104.7128072836
21
233.2175467200
0
LINE
5
304
100
AcDbEntity
8
0
100
AcDbLine
62
7
6
CONTINUOUS
10
104.1011053183
20
234.2770464606
11
104.3670626738
21
233.8163950629
0
LINE
5
305
100
AcDbEntity
8
0
100
AcDbLine
62
7
6
CONTINUOUS
10
104.8932291128
20
233.3217146582
11
103.9889737227
21
234.8879301733
0
LINE
5
306
100
AcDbEntity
8
0
100
AcDbLine
62
7
6
CONTINUOUS
10
109.7910837986
20
233.9538443274
11
109.3737059691
21
235.3155024237
0
LINE
5
307
100
AcDbEntity
8
0
100
AcDbLine
62
7
6
CONTINUOUS
10
109.0954540827
20
235.1970980353
11
109.4664566376
21
233.9538443274
0
LINE
5
308
100
AcDbEntity
8
0
100
AcDbLine
62
7
6
CONTINUOUS
10
109.4200813629
20
236.2627432532
11
109.4664566376
21
236.0851347632
0
LINE
5
309
100
AcDbEntity
8
0
100
AcDbLine
62
7
6
CONTINUOUS
10
109.7447085240
20
236.0851347632
11
109.6983332493
21
236.2627432532
0
LINE
5
30A
100
AcDbEntity
8
0
100
AcDbLine
62
7
6
CONTINUOUS
10
110.4867136337
20
234.6642744727
11
110.4403382995
21
234.9010851569
0
LINE
5
30B
100
AcDbEntity
8
DEFAULT_2
100
AcDbLine
62
8
6
HIDDEN
10
117.0188218214
20
198.2861171662
11
117.0188218214
21
187.0338442511
0
LINE
5
30C
100
AcDbEntity
8
0
100
AcDbLine
62
7
6
CONTINUOUS
10
90.0969430067
20
222.8561175055
11
92.1365014174
21
222.6240866370
0
LINE
5
30D
100
AcDbEntity
8
0
100
AcDbLine
62
7
6
CONTINUOUS
10
91.9568081953
20
222.8814222998
11
89.6561528303
21
223.1790163702
0
LINE
5
30E
100
AcDbEntity
8
0
100
AcDbLine
62
7
6
CONTINUOUS
10
98.9904881575
20
230.7122271246
11
99.1690398314
21
230.5696337408
0
LINE
5
30F
100
AcDbEntity
8
0
100
AcDbLine
62
7
6
CONTINUOUS
10
100.5782013991
20
231.6288950629
11
100.7567530729
21
231.4862997717
0
LINE
5
310
100
AcDbEntity
8
0
100
AcDbLine
62
7
6
CONTINUOUS
10
99.4802952864
20
232.5305235571
11
99.3017436125
21
232.6731188483
0
LINE
5
311
100
AcDbEntity
8
0
100
AcDbLine
62
7
6
CONTINUOUS
10
100.4623299696
20
231.7462561316
11
100.5782013991
21
231.6288950629
0
LINE
5
312
100
AcDbEntity
8
0
100
AcDbLine
62
7
6
CONTINUOUS
10
101.1838799574
20
233.3298285193
11
101.0680085280
21
233.4471914954
0
LINE
5
313
100
AcDbEntity
8
0
100
AcDbLine
62
7
6
CONTINUOUS
10
103.3661881544
20
233.2999594397
11
103.5086556532
21
233.1365320868
0
LINE
5
314
100
AcDbEntity
8
0
100
AcDbLine
62
7
6
CONTINUOUS
10
110.2084616878
20
234.6050722784
11
110.3012123563
21
234.3682615942
0
LINE
5
315
100
AcDbEntity
8
0
100
AcDbLine
62
7
6
CONTINUOUS
10
113.7329858400
20
236.0259325690
11
113.7793611147
21
235.7891218848
0
LINE
5
316
100
AcDbEntity
8
0
100
AcDbLine
62
7
6
CONTINUOUS
10
114.0576130011
20
235.7891218848
11
114.0112377264
21
236.0851347632
0
LINE
5
317
100
AcDbEntity
8
0
100
AcDbLine
62
7
6
CONTINUOUS
10
88.0453606703
20
218.2951605505
11
87.8006669142
21
218.2632320113
0
LINE
5
318
100
AcDbEntity
8
0
100
AcDbLine
62
7
6
CONTINUOUS
10
91.8716336348
20
226.9008972830
11
91.6595021345
21
226.9456770605
0
LINE
5
319
100
AcDbEntity
8
0
100
AcDbLine
62
7
6
CONTINUOUS
10
99.3589507200
20
230.7406981177
11
99.0550385573
21
230.9337561316
0
LINE
5
31A
100
AcDbEntity
8
0
100
AcDbLine
62
7
6
CONTINUOUS
10
99.1118327238
20
232.5020525641
11
99.4157448866
21
232.3089945502
0
LINE
5
31B
100
AcDbEntity
8
0
100
AcDbLine
62
7
6
CONTINUOUS
10
100.9466639616
20
231.6573660559
11
100.6427517988
21
231.8504240698
0
LINE
5
31C
100
AcDbEntity
8
0
100
AcDbLine
62
7
6
CONTINUOUS
10
101.0680085280
20
233.4471914954
11
100.8894568541
21
233.5897848791
0
LINE
5
31D
100
AcDbEntity
8
0
100
AcDbLine
62
7
6
CONTINUOUS
10
103.7917200186
20
232.5629160590
11
104.0234633543
21
232.3281920142
0
LINE
5
31E
100
AcDbEntity
8
0
100
AcDbLine
62
7
6
CONTINUOUS
10
104.0880137541
20
232.5497210211
11
103.9721423247
21
232.6670839972
0
LINE
5
31F
100
AcDbEntity
8
0
100
AcDbLine
62
7
6
CONTINUOUS
10
103.6358862974
20
233.3328287787
11
103.5200143912
21
233.4501917548
0
LINE
5
320
100
AcDbEntity
8
0
100
AcDbLine
62
7
6
CONTINUOUS
10
109.6983332493
20
236.2627432532
11
109.5592073061
21
236.4995539374
0
LINE
5
321
100
AcDbEntity
8
0
100
AcDbLine
62
7
6
CONTINUOUS
10
110.5794642427
20
234.4866678900
11
110.4867136337
21
234.6642744727
0
LINE
5
322
100
AcDbEntity
8
0
100
AcDbLine
62
7
6
CONTINUOUS
10
87.8171902754
20
218.0298931784
11
87.9476777174
21
218.0650346465
0
LINE
5
323
100
AcDbEntity
8
0
100
AcDbLine
62
7
6
CONTINUOUS
10
99.1690398314
20
230.5696337408
11
99.3570805647
21
230.4939387030
0
LINE
5
324
100
AcDbEntity
8
0
100
AcDbLine
62
7
6
CONTINUOUS
10
102.3216115095
20
232.9425547308
11
103.1801558592
21
232.4555113501
0
LINE
5
325
100
AcDbEntity
8
0
100
AcDbLine
62
7
6
CONTINUOUS
10
100.6995459654
20
233.4187205023
11
101.0034581282
21
233.2256624884
0
LINE
5
326
100
AcDbEntity
8
0
100
AcDbLine
62
7
6
CONTINUOUS
10
104.2399698355
20
232.4531920142
11
104.0880137541
21
232.5497210211
0
LINE
5
327
100
AcDbEntity
8
0
100
AcDbLine
62
7
6
CONTINUOUS
10
103.5086556532
20
233.1365320868
11
103.5979314901
21
233.0652353949
0
LINE
5
328
100
AcDbEntity
8
0
100
AcDbLine
62
7
6
CONTINUOUS
10
103.7251621344
20
233.2615320868
11
103.6358862974
21
233.3328287787
0
LINE
5
329
100
AcDbEntity
8
0
100
AcDbLine
62
7
6
CONTINUOUS
10
103.9681264021
20
234.5073721594
11
103.8788505652
21
234.5786688513
0
LINE
5
32A
100
AcDbEntity
8
0
100
AcDbLine
62
7
6
CONTINUOUS
10
110.3012123563
20
234.3682615942
11
110.4867136337
21
234.1314509100
0
LINE
5
32B
100
AcDbEntity
8
0
100
AcDbLine
62
7
6
CONTINUOUS
10
109.3273306944
20
236.3811476416
11
109.4200813629
21
236.2627432532
0
LINE
5
32C
100
AcDbEntity
8
0
100
AcDbLine
62
7
6
CONTINUOUS
10
113.6402350523
20
236.2035410590
11
113.7329858400
21
236.0259325690
0
LINE
5
32D
100
AcDbEntity
8
0
100
AcDbLine
62
7
6
CONTINUOUS
10
114.0112377264
20
236.0851347632
11
113.9184869387
21
236.3219454474
0
LINE
5
32E
100
AcDbEntity
8
0
100
AcDbLine
62
7
6
CONTINUOUS
10
126.0188218214
20
186.0338442511
11
126.0188218214
21
188.1343057681
0
LINE
5
32F
100
AcDbEntity
8
DEFAULT_2
100
AcDbLine
62
8
6
HIDDEN
10
105.0188218214
20
187.0338442511
11
104.0188218214
21
186.0338442511
0
LINE
5
330
100
AcDbEntity
8
0
100
AcDbLine
62
7
6
CONTINUOUS
10
91.5945016005
20
226.6564133353
11
91.7739525892
21
226.6707709021
0
LINE
5
331
100
AcDbEntity
8
0
100
AcDbLine
62
7
6
CONTINUOUS
10
99.3570805647
20
230.4939387030
11
99.6172896483
21
230.4599096960
0
LINE
5
332
100
AcDbEntity
8
0
100
AcDbLine
62
7
6
CONTINUOUS
10
99.5203953840
20
230.7110693640
11
99.3589507200
21
230.7406981177
0
LINE
5
333
100
AcDbEntity
8
0
100
AcDbLine
62
7
6
CONTINUOUS
10
100.7567530729
20
231.4862997717
11
100.9447938063
21
231.4106047339
0
LINE
5
334
100
AcDbEntity
8
0
100
AcDbLine
62
7
6
CONTINUOUS
10
99.3017436125
20
232.6731188483
11
99.1137028792
21
232.7488138861
0
LINE
5
335
100
AcDbEntity
8
0
100
AcDbLine
62
7
6
CONTINUOUS
10
104.0234633543
20
232.3281920142
11
104.2115040877
21
232.2524969763
0
LINE
5
336
100
AcDbEntity
8
0
100
AcDbLine
62
7
6
CONTINUOUS
10
100.8894568541
20
233.5897848791
11
100.7014161207
21
233.6654799170
0
LINE
5
337
100
AcDbEntity
8
0
100
AcDbLine
62
7
6
CONTINUOUS
10
103.5979314901
20
233.0652353949
11
103.7859717466
21
232.9895403571
0
LINE
5
338
100
AcDbEntity
8
0
100
AcDbLine
62
7
6
CONTINUOUS
10
103.3966618635
20
232.5805113501
11
102.3500767805
21
233.1432497687
0
LINE
5
339
100
AcDbEntity
8
0
100
AcDbLine
62
7
6
CONTINUOUS
10
103.9491492369
20
234.3735754675
11
104.1011053183
21
234.2770464606
0
LINE
5
33A
100
AcDbEntity
8
0
100
AcDbLine
62
7
6
CONTINUOUS
10
100.9447938063
20
231.4106047339
11
101.2050028898
21
231.3765757269
0
LINE
5
33B
100
AcDbEntity
8
0
100
AcDbLine
62
7
6
CONTINUOUS
10
99.1137028792
20
232.7488138861
11
98.8534937956
21
232.7828428931
0
LINE
5
33C
100
AcDbEntity
8
0
100
AcDbLine
62
7
6
CONTINUOUS
10
101.1081086256
20
231.6277353949
11
100.9466639616
21
231.6573660559
0
LINE
5
33D
100
AcDbEntity
8
0
100
AcDbLine
62
7
6
CONTINUOUS
10
98.9503880598
20
232.5316832251
11
99.1118327238
21
232.5020525641
0
LINE
5
33E
100
AcDbEntity
8
0
100
AcDbLine
62
7
6
CONTINUOUS
10
104.2115040877
20
232.2524969763
11
104.3729487517
21
232.2228663153
0
LINE
5
33F
100
AcDbEntity
8
0
100
AcDbLine
62
7
6
CONTINUOUS
10
100.5381013014
20
233.4483492560
11
100.6995459654
21
233.4187205023
0
LINE
5
340
100
AcDbEntity
8
0
100
AcDbLine
62
7
6
CONTINUOUS
10
103.7859717466
20
232.9895403571
11
103.9474164107
21
232.9599096960
0
LINE
5
341
100
AcDbEntity
8
0
100
AcDbLine
62
7
6
CONTINUOUS
10
103.8788505652
20
234.5786688513
11
103.7534900763
21
234.6291334814
0
LINE
5
342
100
AcDbEntity
8
0
100
AcDbLine
62
7
6
CONTINUOUS
10
110.4867136337
20
234.1314509100
11
110.6722148814
21
234.0130465216
0
LINE
5
343
100
AcDbEntity
8
0
100
AcDbLine
62
7
6
CONTINUOUS
10
110.7185901858
20
234.3682615942
11
110.5794642427
21
234.4866678900
0
LINE
5
344
100
AcDbEntity
8
0
100
AcDbLine
62
7
6
CONTINUOUS
10
109.5592073061
20
236.4995539374
11
109.3737059691
21
236.6771605200
0
LINE
5
345
100
AcDbEntity
8
0
100
AcDbLine
62
7
6
CONTINUOUS
10
113.9184869387
20
236.3219454474
11
113.7329858400
21
236.5587561316
0
LINE
5
346
100
AcDbEntity
8
0
100
AcDbLine
62
7
6
CONTINUOUS
10
99.7274132826
20
230.7691710181
11
99.5203953840
21
230.7110693640
0
LINE
5
347
100
AcDbEntity
8
0
100
AcDbLine
62
7
6
CONTINUOUS
10
101.3151265242
20
231.6858370489
11
101.1081086256
21
231.6277353949
0
LINE
5
348
100
AcDbEntity
8
0
100
AcDbLine
62
7
6
CONTINUOUS
10
91.6595021345
20
226.9456770605
11
91.3985272505
21
226.8753941244
0
LINE
5
349
100
AcDbEntity
8
0
100
AcDbLine
62
7
6
CONTINUOUS
10
113.3156078913
20
233.9538443274
11
113.5474845030
21
234.0130465216
0
LINE
5
34A
100
AcDbEntity
8
0
100
AcDbLine
62
7
6
CONTINUOUS
10
111.0895927184
20
233.9538443274
11
111.3214692928
21
234.0130465216
0
LINE
5
34B
100
AcDbEntity
8
0
100
AcDbLine
62
7
6
CONTINUOUS
10
104.3729487517
20
232.2228663153
11
104.5438819983
21
232.2601340002
0
LINE
5
34C
100
AcDbEntity
8
0
100
AcDbLine
62
7
6
CONTINUOUS
10
103.9474164107
20
232.9599096960
11
104.1183501341
21
232.9971773810
0
LINE
5
34D
100
AcDbEntity
8
0
100
AcDbLine
62
7
6
CONTINUOUS
10
108.0288218119
20
233.9538443274
11
108.3070736982
21
233.9538443274
0
LINE
5
34E
100
AcDbEntity
8
0
100
AcDbLine
62
7
6
CONTINUOUS
10
109.4664566376
20
233.9538443274
11
109.7910837986
21
233.9538443274
0
LINE
5
34F
100
AcDbEntity
8
0
100
AcDbLine
62
7
6
CONTINUOUS
10
110.9040914558
20
233.9538443274
11
111.0895927184
21
233.9538443274
0
LINE
5
350
100
AcDbEntity
8
0
100
AcDbLine
62
7
6
CONTINUOUS
10
112.2026003458
20
233.9538443274
11
113.3156078913
21
233.9538443274
0
LINE
5
351
100
AcDbEntity
8
0
100
AcDbLine
62
7
6
CONTINUOUS
10
104.4374986746
20
232.4443953223
11
104.2399698355
21
232.4531920142
0
LINE
5
352
100
AcDbEntity
8
0
100
AcDbLine
62
7
6
CONTINUOUS
10
100.7014161207
20
233.6654799170
11
100.4412070372
21
233.6995089239
0
LINE
5
353
100
AcDbEntity
8
0
100
AcDbLine
62
7
6
CONTINUOUS
10
103.8866067984
20
233.2319014258
11
103.7251621344
21
233.2615320868
0
LINE
5
354
100
AcDbEntity
8
0
100
AcDbLine
62
7
6
CONTINUOUS
10
103.7877045729
20
234.4032061285
11
103.9491492369
21
234.3735754675
0
LINE
5
355
100
AcDbEntity
8
0
100
AcDbLine
62
7
6
CONTINUOUS
10
110.6722148814
20
234.0130465216
11
110.9040914558
21
233.9538443274
0
LINE
5
356
100
AcDbEntity
8
0
100
AcDbLine
62
7
6
CONTINUOUS
10
110.9040914558
20
234.3090594000
11
110.7185901858
21
234.3682615942
0
LINE
5
357
100
AcDbEntity
8
0
100
AcDbLine
62
7
6
CONTINUOUS
10
109.1882047512
20
236.4403498358
11
109.3273306944
21
236.3811476416
0
LINE
5
358
100
AcDbEntity
8
0
100
AcDbLine
62
7
6
CONTINUOUS
10
113.5011092283
20
236.3219454474
11
113.6402350523
21
236.2035410590
0
LINE
5
359
100
AcDbEntity
8
0
100
AcDbLine
62
7
6
CONTINUOUS
10
98.7433701613
20
232.4735815710
11
98.9503880598
21
232.5316832251
0
LINE
5
35A
100
AcDbEntity
8
0
100
AcDbLine
62
7
6
CONTINUOUS
10
100.3310834028
20
233.3902476019
11
100.5381013014
21
233.4483492560
0
LINE
5
35B
100
AcDbEntity
8
0
100
AcDbLine
62
7
6
CONTINUOUS
10
104.0575400450
20
233.2691710181
11
103.8866067984
21
233.2319014258
0
LINE
5
35C
100
AcDbEntity
8
0
100
AcDbLine
62
7
6
CONTINUOUS
10
103.6167713263
20
234.3659365363
11
103.7877045729
21
234.4032061285
0
LINE
5
35D
100
AcDbEntity
8
0
100
AcDbLine
62
7
6
CONTINUOUS
10
103.6547256567
20
234.6335318274
11
103.4837924101
21
234.5962641425
0
LINE
5
35E
100
AcDbEntity
8
0
100
AcDbLine
62
7
6
CONTINUOUS
10
113.3156078913
20
234.3090594000
11
112.4808522322
21
234.3090594000
0
LINE
5
35F
100
AcDbEntity
8
0
100
AcDbLine
62
7
6
CONTINUOUS
10
111.0895927184
20
234.3090594000
11
110.9040914558
21
234.3090594000
0
LINE
5
360
100
AcDbEntity
8
0
100
AcDbLine
62
7
6
CONTINUOUS
10
108.3070736982
20
235.1970980353
11
109.0954540827
21
235.1970980353
0
LINE
5
361
100
AcDbEntity
8
0
100
AcDbLine
62
7
6
CONTINUOUS
10
109.1882047512
20
235.5523131079
11
108.3070736982
21
235.5523131079
0
LINE
5
362
100
AcDbEntity
8
0
100
AcDbLine
62
7
6
CONTINUOUS
10
112.4808522322
20
236.3811476416
11
113.3156078913
21
236.3811476416
0
LINE
5
363
100
AcDbEntity
8
0
100
AcDbLine
62
7
6
CONTINUOUS
10
108.3070736982
20
236.4403498358
11
109.1882047512
21
236.4403498358
0
LINE
5
364
100
AcDbEntity
8
0
100
AcDbLine
62
7
6
CONTINUOUS
10
103.7534900763
20
234.6291334814
11
103.6547256567
21
234.6335318274
0
LINE
5
365
100
AcDbEntity
8
0
100
AcDbLine
62
7
6
CONTINUOUS
10
109.3737059691
20
236.6771605200
11
109.1418294766
21
236.7363627142
0
LINE
5
366
100
AcDbEntity
8
0
100
AcDbLine
62
7
6
CONTINUOUS
10
113.5474845030
20
236.6771605200
11
113.3156078913
21
236.7363627142
0
LINE
5
367
100
AcDbEntity
8
0
100
AcDbLine
62
7
6
CONTINUOUS
10
113.3156078913
20
236.3811476416
11
113.5011092283
21
236.3219454474
0
LINE
5
368
100
AcDbEntity
8
0
100
AcDbLine
62
7
6
CONTINUOUS
10
113.7329858400
20
236.5587561316
11
113.5474845030
21
236.6771605200
0
LINE
5
369
100
AcDbEntity
8
0
100
AcDbLine
62
7
6
CONTINUOUS
10
113.3156078913
20
236.7363627142
11
112.2026003458
21
236.7363627142
0
LINE
5
36A
100
AcDbEntity
8
0
100
AcDbLine
62
7
6
CONTINUOUS
10
111.8315977909
20
236.7363627142
11
111.5533459046
21
236.7363627142
0
LINE
5
36B
100
AcDbEntity
8
0
100
AcDbLine
62
7
6
CONTINUOUS
10
110.4403382995
20
236.7363627142
11
110.1620864131
21
236.7363627142
0
LINE
5
36C
100
AcDbEntity
8
0
100
AcDbLine
62
7
6
CONTINUOUS
10
109.1418294766
20
236.7363627142
11
108.0288218119
21
236.7363627142
0
LINE
5
36D
100
AcDbEntity
8
0
100
AcDbLine
62
7
6
CONTINUOUS
10
111.9755304023
20
239.7797597892
11
129.9616517235
21
232.3296644035
0
LINE
5
36E
100
AcDbEntity
8
0
100
AcDbLine
62
7
6
CONTINUOUS
10
131.3146419739
20
230.9766741532
11
138.7647373596
21
212.9905528320
0
LINE
5
36F
100
AcDbEntity
8
0
100
AcDbLine
62
7
6
CONTINUOUS
10
138.7647373596
20
211.0771356702
11
131.3019116463
21
193.0602806196
0
LINE
5
370
100
AcDbEntity
8
0
100
AcDbLine
62
7
6
CONTINUOUS
10
280.3773921721
20
186.0338442511
11
310.3768678138
21
186.0338442511
0
LINE
5
371
100
AcDbEntity
8
DEFAULT_2
100
AcDbLine
62
8
6
HIDDEN
10
301.3771299929
20
187.0338442511
11
289.3771299929
21
187.0338442511
0
LINE
5
372
100
AcDbEntity
8
0
100
AcDbLine
62
7
6
CONTINUOUS
10
301.2598066265
20
192.1343057681
11
297.3502409029
21
192.1343057681
0
LINE
5
373
100
AcDbEntity
8
0
100
AcDbLine
62
7
6
CONTINUOUS
10
293.4040190829
20
192.1343057681
11
289.4944533593
21
192.1343057681
0
LINE
5
374
100
AcDbEntity
8
0
100
AcDbLine
62
7
6
CONTINUOUS
10
280.3771299929
20
186.0338442511
11
280.3771299929
21
193.0584675699
0
LINE
5
375
100
AcDbEntity
8
0
100
AcDbLine
62
7
6
CONTINUOUS
10
282.0642610628
20
195.0338442511
11
287.4980133967
21
195.8944660734
0
LINE
5
376
100
AcDbEntity
8
0
100
AcDbLine
62
7
6
CONTINUOUS
10
308.6899989230
20
195.0338442511
11
303.2559042091
21
195.8945203010
0
LINE
5
377
100
AcDbEntity
8
DEFAULT_2
100
AcDbLine
62
8
6
HIDDEN
10
301.3771299929
20
187.0338442511
11
302.3771299929
21
186.0338442511
0
LINE
5
378
100
AcDbEntity
8
0
100
AcDbLine
62
7
6
CONTINUOUS
10
289.3771299929
20
238.4700609507
11
289.3771299929
21
212.5983832125
0
LINE
5
379
100
AcDbEntity
8
DEFAULT_2
100
AcDbLine
62
8
6
HIDDEN
10
289.3771299929
20
197.0339812958
11
289.3771299929
21
187.0338442511
0
LINE
5
37A
100
AcDbEntity
8
0
100
AcDbLine
62
7
6
CONTINUOUS
10
289.3346962003
20
211.4709023250
11
287.8538595502
21
191.8255917210
0
LINE
5
37B
100
AcDbEntity
8
DEFAULT_1
100
AcDbLine
62
2
6
CENTER
10
295.3771299929
20
243.5524689802
11
295.3771299929
21
183.0338442511
0
LINE
5
37C
100
AcDbEntity
8
0
100
AcDbLine
62
7
6
CONTINUOUS
10
301.3771299929
20
216.1038444228
11
301.6771299929
21
216.1038444228
0
LINE
5
37D
100
AcDbEntity
8
0
100
AcDbLine
62
7
6
CONTINUOUS
10
302.9004004467
20
191.8255915740
11
301.4195637855
21
211.4709023250
0
LINE
5
37E
100
AcDbEntity
8
DEFAULT_2
100
AcDbLine
62
8
6
HIDDEN
10
301.3771299929
20
197.0340118100
11
301.3771299929
21
187.0338442511
0
LINE
5
37F
100
AcDbEntity
8
0
100
AcDbLine
62
7
6
CONTINUOUS
10
301.3771299929
20
212.5983832125
11
301.3771299929
21
238.4700609580
0
LINE
5
380
100
AcDbEntity
8
0
100
AcDbLine
62
7
6
CONTINUOUS
10
301.6771299929
20
236.7363627142
11
301.6771299929
21
229.6638434119
0
LINE
5
381
100
AcDbEntity
8
0
100
AcDbLine
62
7
6
CONTINUOUS
10
301.6771299929
20
226.9456770605
11
301.6771299929
21
221.8569996542
0
LINE
5
382
100
AcDbEntity
8
0
100
AcDbLine
62
7
6
CONTINUOUS
10
301.6771299929
20
220.6859829611
11
301.6771299929
21
216.1038444228
0
LINE
5
383
100
AcDbEntity
8
0
100
AcDbLine
62
7
6
CONTINUOUS
10
301.3771299929
20
220.6859829611
11
301.6771299929
21
220.6859829611
0
LINE
5
384
100
AcDbEntity
8
0
100
AcDbLine
62
7
6
CONTINUOUS
10
301.3771299929
20
221.8569996542
11
301.6771299929
21
221.8569996542
0
LINE
5
385
100
AcDbEntity
8
DEFAULT_2
100
AcDbLine
62
8
6
HIDDEN
10
289.3771299929
20
187.0338442511
11
288.3771299929
21
186.0338442511
0
LINE
5
386
100
AcDbEntity
8
0
100
AcDbLine
62
7
6
CONTINUOUS
10
301.3771299929
20
226.9456770605
11
301.6771299929
21
226.9456770605
0
LINE
5
387
100
AcDbEntity
8
0
100
AcDbLine
62
7
6
CONTINUOUS
10
310.3771299929
20
186.0338442511
11
310.3771299929
21
193.0584675699
0
LINE
5
388
100
AcDbEntity
8
0
100
AcDbLine
62
7
6
CONTINUOUS
10
301.3771299929
20
229.6638434119
11
301.6771299929
21
229.6638434119
0
LINE
5
389
100
AcDbEntity
8
0
100
AcDbLine
62
7
6
CONTINUOUS
10
301.3771299929
20
236.7363627142
11
301.6771299929
21
236.7363627142
0
LINE
5
38A
100
AcDbEntity
8
0
100
AcDbLine
62
7
6
CONTINUOUS
10
299.8771299929
20
239.9700609580
11
290.8771299929
21
239.9700609580
0
LINE
5
38B
100
AcDbEntity
8
0
100
AcDbLine
62
7
6
CONTINUOUS
10
83.0826051145
20
108.1037980780
11
83.0826051145
21
117.1231201160
0
LINE
5
38C
100
AcDbEntity
8
0
100
AcDbLine
62
7
6
CONTINUOUS
10
87.0675603010
20
106.6134590964
11
87.0675603010
21
106.3134590964
0
LINE
5
38D
100
AcDbEntity
8
0
100
AcDbLine
62
7
6
CONTINUOUS
10
93.6343041517
20
106.6134590964
11
93.6343041517
21
106.3134590964
0
LINE
5
38E
100
AcDbEntity
8
0
100
AcDbLine
62
7
6
CONTINUOUS
10
98.3308450072
20
120.6144118123
11
98.3226327867
21
120.6013739679
0
LINE
5
38F
100
AcDbEntity
8
0
100
AcDbLine
62
7
6
CONTINUOUS
10
96.9469071486
20
106.6134590964
11
96.9469071486
21
106.3134590964
0
LINE
5
390
100
AcDbEntity
8
0
100
AcDbLine
62
7
6
CONTINUOUS
10
137.5261102452
20
106.5910191376
11
130.1846518323
21
105.2550196759
0
LINE
5
391
100
AcDbEntity
8
0
100
AcDbLine
62
7
6
CONTINUOUS
10
91.8529918105
20
105.2550196759
11
84.5115333976
21
106.5910191376
0
LINE
5
392
100
AcDbEntity
8
0
100
AcDbLine
62
7
6
CONTINUOUS
10
137.5851749384
20
106.6004961658
11
137.5836132683
21
106.6002803522
0
LINE
5
393
100
AcDbEntity
8
0
100
AcDbLine
62
7
6
CONTINUOUS
10
124.4650213708
20
105.0730342699
11
124.4650912721
21
105.0730403036
0
LINE
5
394
100
AcDbEntity
8
0
100
AcDbLine
62
7
6
CONTINUOUS
10
97.5725514449
20
105.0730401340
11
97.5726222159
21
105.0730340254
0
LINE
5
395
100
AcDbEntity
8
0
100
AcDbLine
62
7
6
CONTINUOUS
10
84.4524686201
20
106.6004968960
11
84.4544280714
21
106.6002264081
0
LINE
5
396
100
AcDbEntity
8
0
100
AcDbLine
62
7
6
CONTINUOUS
10
129.9160923475
20
105.2307824628
11
129.0852026326
21
105.2307824628
0
LINE
5
397
100
AcDbEntity
8
0
100
AcDbLine
62
7
6
CONTINUOUS
10
92.9524410100
20
105.2307824628
11
92.1215512953
21
105.2307824628
0
LINE
5
398
100
AcDbEntity
8
0
100
AcDbLine
62
7
6
CONTINUOUS
10
114.0576130011
20
106.3134590964
11
112.2026003458
21
106.3134590964
0
LINE
5
399
100
AcDbEntity
8
0
100
AcDbLine
62
7
6
CONTINUOUS
10
111.8315977909
20
106.3134590964
11
110.1620864131
21
106.3134590964
0
LINE
5
39A
100
AcDbEntity
8
0
100
AcDbLine
62
7
6
CONTINUOUS
10
109.7910837986
20
106.3134590964
11
108.0288218119
21
106.3134590964
0
LINE
5
39B
100
AcDbEntity
8
0
100
AcDbLine
62
7
6
CONTINUOUS
10
105.0148492911
20
106.3134590964
11
96.9469071486
21
106.3134590964
0
LINE
5
39C
100
AcDbEntity
8
0
100
AcDbLine
62
7
6
CONTINUOUS
10
93.6343041517
20
106.3134590964
11
87.0675603010
21
106.3134590964
0
LINE
5
39D
100
AcDbEntity
8
0
100
AcDbLine
62
7
6
CONTINUOUS
10
105.0072308638
20
106.6134590964
11
105.0072308638
21
106.3134590964
0
LINE
5
39E
100
AcDbEntity
8
0
100
AcDbLine
62
7
6
CONTINUOUS
10
105.0148492911
20
106.6134590964
11
105.0148492911
21
106.3134590964
0
LINE
5
39F
100
AcDbEntity
8
0
100
AcDbLine
62
7
6
CONTINUOUS
10
84.7340526086
20
106.6134590964
11
137.3035910343
21
106.6134590964
0
LINE
5
3A0
100
AcDbEntity
8
0
100
AcDbLine
62
7
6
CONTINUOUS
10
108.0288218119
20
106.6134590964
11
108.0288218119
21
106.3134590964
0
LINE
5
3A1
100
AcDbEntity
8
0
100
AcDbLine
62
7
6
CONTINUOUS
10
109.7910837986
20
106.6134590964
11
109.7910837986
21
106.3134590964
0
LINE
5
3A2
100
AcDbEntity
8
0
100
AcDbLine
62
7
6
CONTINUOUS
10
110.1620864131
20
106.6134590964
11
110.1620864131
21
106.3134590964
0
LINE
5
3A3
100
AcDbEntity
8
DEFAULT_1
100
AcDbLine
62
2
6
CENTER
10
111.0188218214
20
112.6134590964
11
111.0188218214
21
94.6134590964
0
LINE
5
3A4
100
AcDbEntity
8
DEFAULT_1
100
AcDbLine
62
2
6
CENTER
10
111.0188218214
20
112.6134590964
11
111.0188218214
21
130.6134590964
0
LINE
5
3A5
100
AcDbEntity
8
DEFAULT_1
100
AcDbLine
62
2
6
CENTER
10
111.0188218214
20
112.6134590964
11
93.0188218214
21
112.6134590964
0
LINE
5
3A6
100
AcDbEntity
8
DEFAULT_1
100
AcDbLine
62
2
6
CENTER
10
111.0188218214
20
112.6134590964
11
129.0188218214
21
112.6134590964
0
LINE
5
3A7
100
AcDbEntity
8
0
100
AcDbLine
62
7
6
CONTINUOUS
10
111.8315977909
20
106.6134590964
11
111.8315977909
21
106.3134590964
0
LINE
5
3A8
100
AcDbEntity
8
0
100
AcDbLine
62
7
6
CONTINUOUS
10
112.2026003458
20
106.6134590964
11
112.2026003458
21
106.3134590964
0
LINE
5
3A9
100
AcDbEntity
8
0
100
AcDbLine
62
7
6
CONTINUOUS
10
114.0576130011
20
106.6134590964
11
114.0576130011
21
106.3134590964
0
LINE
5
3AA
100
AcDbEntity
8
0
100
AcDbLine
62
7
6
CONTINUOUS
10
137.3035910343
20
118.6134590964
11
84.7340526086
21
118.6134590964
0
LINE
5
3AB
100
AcDbEntity
8
0
100
AcDbLine
62
7
6
CONTINUOUS
10
97.5726222720
20
120.1538839229
11
97.5725523708
21
120.1538778892
0
LINE
5
3AC
100
AcDbEntity
8
0
100
AcDbLine
62
7
6
CONTINUOUS
10
92.1215512953
20
119.9961357300
11
92.9524410103
21
119.9961357300
0
LINE
5
3AD
100
AcDbEntity
8
0
100
AcDbLine
62
7
6
CONTINUOUS
10
129.0852026329
20
119.9961357300
11
129.9160923475
21
119.9961357300
0
LINE
5
3AE
100
AcDbEntity
8
0
100
AcDbLine
62
7
6
CONTINUOUS
10
124.4650921980
20
120.1538780587
11
124.4650214270
21
120.1538841674
0
LINE
5
3AF
100
AcDbEntity
8
0
100
AcDbLine
62
7
6
CONTINUOUS
10
84.5115333976
20
118.6358990551
11
91.8529918105
21
119.9718985169
0
LINE
5
3B0
100
AcDbEntity
8
0
100
AcDbLine
62
7
6
CONTINUOUS
10
84.4524687055
20
118.6264220272
11
84.4540353427
21
118.6266385241
0
LINE
5
3B1
100
AcDbEntity
8
0
100
AcDbLine
62
7
6
CONTINUOUS
10
137.5851750402
20
118.6264213622
11
137.5832206133
21
118.6266911589
0
LINE
5
3B2
100
AcDbEntity
8
0
100
AcDbLine
62
7
6
CONTINUOUS
10
130.1846518323
20
119.9718985169
11
137.5261102452
21
118.6358990551
0
LINE
5
3B3
100
AcDbEntity
8
0
100
AcDbLine
62
7
6
CONTINUOUS
10
123.7067986356
20
104.6125063804
11
123.7150108561
21
104.6255442249
0
LINE
5
3B4
100
AcDbEntity
8
0
100
AcDbLine
62
7
6
CONTINUOUS
10
123.7150108319
20
120.6013740064
11
123.7068145397
21
120.6143865914
0
LINE
5
3B5
100
AcDbEntity
8
0
100
AcDbLine
62
7
6
CONTINUOUS
10
138.9550385283
20
108.1037985654
11
138.9550385283
21
117.1231196262
0
ARC
5
3B6
100
AcDbEntity
8
0
100
AcDbCircle
62
7
6
CONTINUOUS
10
92.0188218214
20
188.1343057681
40
4.0000000000
100
AcDbArc
50
0.0000000000
51
88.9260843043
0
ARC
5
3B7
100
AcDbEntity
8
0
100
AcDbCircle
62
7
6
CONTINUOUS
10
130.0188218214
20
188.1343057681
40
4.0000000000
100
AcDbArc
50
91.0739156957
51
180.0000000000
0
CIRCLE
5
3B8
100
AcDbEntity
8
0
100
AcDbCircle
62
7
6
CONTINUOUS
10
111.0188218214
20
212.0338442511
40
15.0000000000
0
ARC
5
3B9
100
AcDbEntity
8
0
100
AcDbCircle
62
7
6
CONTINUOUS
10
129.0049431426
20
230.0199655723
40
2.5000000000
100
AcDbArc
50
22.5000000000
51
67.5000000000
0
ARC
5
3BA
100
AcDbEntity
8
0
100
AcDbCircle
62
7
6
CONTINUOUS
10
111.0188218214
20
237.4700609580
40
2.5000000000
100
AcDbArc
50
67.5000000000
51
112.5000000000
0
ARC
5
3BB
100
AcDbEntity
8
0
100
AcDbCircle
62
7
6
CONTINUOUS
10
93.0327005003
20
230.0199655723
40
2.5000000000
100
AcDbArc
50
112.5000000000
51
157.5000000000
0
ARC
5
3BC
100
AcDbEntity
8
0
100
AcDbCircle
62
7
6
CONTINUOUS
10
85.5826051145
20
212.0338442511
40
2.5000000000
100
AcDbArc
50
157.5000000000
51
202.5000000000
0
ARC
5
3BD
100
AcDbEntity
8
0
100
AcDbCircle
62
7
6
CONTINUOUS
10
136.4550385283
20
212.0338442511
40
2.5000000000
100
AcDbArc
50
337.5000000000
51
22.5000000000
0
ARC
5
3BE
100
AcDbEntity
8
0
100
AcDbCircle
62
7
6
CONTINUOUS
10
92.1215512953
20
193.6343057681
40
1.5000000000
100
AcDbArc
50
202.5000000000
51
270.0000000000
0
ARC
5
3BF
100
AcDbEntity
8
0
100
AcDbCircle
62
7
6
CONTINUOUS
10
129.9160923475
20
193.6343057681
40
1.5000000000
100
AcDbArc
50
270.0000000000
51
337.5000000000
0
ARC
5
3C0
100
AcDbEntity
8
DEFAULT_2
100
AcDbCircle
62
8
6
HIDDEN
10
295.3771299929
20
233.0338442511
40
6.0000000000
100
AcDbArc
50
180.0000000000
51
360.0000000000
0
ARC
5
3C1
100
AcDbEntity
8
0
100
AcDbCircle
62
7
6
CONTINUOUS
10
290.8771299929
20
238.4700609580
40
1.5000000000
100
AcDbArc
50
90.0000000000
51
180.0000000000
0
ARC
5
3C2
100
AcDbEntity
8
0
100
AcDbCircle
62
7
6
CONTINUOUS
10
299.8771299929
20
238.4700609580
40
1.5000000000
100
AcDbArc
50
0.0000000000
51
90.0000000000
0
ARC
5
3C3
100
AcDbEntity
8
0
100
AcDbCircle
62
7
6
CONTINUOUS
10
282.3771299929
20
193.0584675699
40
2.0000000000
100
AcDbArc
50
99.0000000000
51
180.0000000000
0
ARC
5
3C4
100
AcDbEntity
8
0
100
AcDbCircle
62
7
6
CONTINUOUS
10
308.3771299929
20
193.0584675699
40
2.0000000000
100
AcDbArc
50
0.0000000000
51
81.0000000000
0
ARC
5
3C5
100
AcDbEntity
8
0
100
AcDbCircle
62
7
6
CONTINUOUS
10
316.3771299929
20
212.5983832125
40
15.0000000000
100
AcDbArc
50
180.0000000000
51
184.3107254215
0
ARC
5
3C6
100
AcDbEntity
8
0
100
AcDbCircle
62
7
6
CONTINUOUS
10
274.3771299929
20
212.5983832125
40
15.0000000000
100
AcDbArc
50
355.6892745785
51
360.0000000000
0
ARC
5
3C7
100
AcDbEntity
8
0
100
AcDbCircle
62
7
6
CONTINUOUS
10
301.2598066265
20
193.6343057681
40
1.5000000000
100
AcDbArc
50
270.0000000000
51
4.3107254215
0
ARC
5
3C8
100
AcDbEntity
8
0
100
AcDbCircle
62
7
6
CONTINUOUS
10
289.4944533593
20
193.6343057681
40
1.5000000000
100
AcDbArc
50
175.6892745785
51
270.0000000000
0
CIRCLE
5
3C9
100
AcDbEntity
8
DEFAULT_2
100
AcDbCircle
62
8
6
HIDDEN
10
111.0188218214
20
112.6134590964
40
6.0000000000
0
ARC
5
3CA
100
AcDbEntity
8
0
100
AcDbCircle
62
7
6
CONTINUOUS
10
111.0188218214
20
112.6134590964
40
15.0000000000
100
AcDbArc
50
211.8079307578
51
328.1920692422
0
ARC
5
3CB
100
AcDbEntity
8
0
100
AcDbCircle
62
7
6
CONTINUOUS
10
111.0188218214
20
112.6134590964
40
15.0000000000
100
AcDbArc
50
31.8079307578
51
148.1920692422
0
SPLINE
5
3CC
100
AcDbEntity
8
0
100
AcDbSpline
62
7
6
CONTINUOUS
70
0
71
3
72
9
73
5
74
3
42
0.0000001000
43
0.0000001000
44
0.0000000001
40
0.0000000000
40
0.0000000000
40
0.0000000000
40
0.0000000000
40
0.4999999521
40
1.0000000000
40
1.0000000000
40
1.0000000000
40
1.0000000000
10
129.9161021351
20
192.1343057681
30
0.0000000000
10
129.9253551764
20
192.1342976556
30
0.0000000000
10
129.9623495776
20
192.1329086505
30
0.0000000000
10
129.9253551728
20
192.1342976601
30
0.0000000000
10
129.9161021298
20
192.1343057681
30
0.0000000000
11
129.9161021351
21
192.1343057681
31
0.0000000000
11
129.9438523761
21
192.1336031542
31
0.0000000000
11
129.9161021298
21
192.1343057681
31
0.0000000000
0
SPLINE
5
3CD
100
AcDbEntity
8
0
100
AcDbSpline
62
7
6
CONTINUOUS
70
0
71
3
72
9
73
5
74
3
42
0.0000001000
43
0.0000001000
44
0.0000000001
40
0.0000000000
40
0.0000000000
40
0.0000000000
40
0.0000000000
40
0.4999999521
40
1.0000000000
40
1.0000000000
40
1.0000000000
40
1.0000000000
10
92.1215415077
20
192.1343057681
30
0.0000000000
10
92.1122884665
20
192.1342976556
30
0.0000000000
10
92.0752940653
20
192.1329086505
30
0.0000000000
10
92.1122884700
20
192.1342976601
30
0.0000000000
10
92.1215415130
20
192.1343057681
30
0.0000000000
11
92.1215415077
21
192.1343057681
31
0.0000000000
11
92.0937912668
21
192.1336031542
31
0.0000000000
11
92.1215415130
21
192.1343057681
31
0.0000000000
0
SPLINE
5
3CE
100
AcDbEntity
8
0
100
AcDbSpline
62
7
6
CONTINUOUS
70
0
71
3
72
8
73
4
74
2
42
0.0000001000
43
0.0000001000
44
0.0000000001
40
0.0000000000
40
0.0000000000
40
0.0000000000
40
0.0000000000
40
1.0000000000
40
1.0000000000
40
1.0000000000
40
1.0000000000
10
288.0918335618
20
196.1995644663
30
0.0000000000
10
288.0645727220
20
196.1706670722
30
0.0000000000
10
288.0355060164
20
196.1433480054
30
0.0000000000
10
288.0048946817
20
196.1178253498
30
0.0000000000
11
288.0918335618
21
196.1995644663
31
0.0000000000
11
288.0048946817
21
196.1178253498
31
0.0000000000
0
SPLINE
5
3CF
100
AcDbEntity
8
0
100
AcDbSpline
62
7
6
CONTINUOUS
70
0
71
3
72
10
73
6
74
4
42
0.0000001000
43
0.0000001000
44
0.0000000001
40
0.0000000000
40
0.0000000000
40
0.0000000000
40
0.0000000000
40
0.2622232738
40
0.7467770233
40
1.0000000000
40
1.0000000000
40
1.0000000000
40
1.0000000000
10
288.0048946817
20
196.1178253498
30
0.0000000000
10
287.9687738548
20
196.0877090730
30
0.0000000000
10
287.8597817014
20
196.0090651393
30
0.0000000000
10
287.6951356115
20
195.9348100485
30
0.0000000000
10
287.5657169458
20
195.9052249952
30
0.0000000000
10
287.5208589009
20
195.8981152466
30
0.0000000000
11
288.0048946817
21
196.1178253498
31
0.0000000000
11
287.8905093728
21
196.0353385629
31
0.0000000000
11
287.6536200997
21
195.9285020931
31
0.0000000000
11
287.5208589009
21
195.8981152466
31
0.0000000000
0
SPLINE
5
3D0
100
AcDbEntity
8
0
100
AcDbSpline
62
7
6
CONTINUOUS
70
0
71
3
72
8
73
4
74
2
42
0.0000001000
43
0.0000001000
44
0.0000000001
40
0.0000000000
40
0.0000000000
40
0.0000000000
40
0.0000000000
40
1.0000000000
40
1.0000000000
40
1.0000000000
40
1.0000000000
10
288.0947758855
20
196.2026512226
30
0.0000000000
10
288.0938053163
20
196.2016138220
30
0.0000000000
10
288.0928246230
20
196.2005848123
30
0.0000000000
10
288.0918335618
20
196.1995644663
30
0.0000000000
11
288.0947758855
21
196.2026512226
31
0.0000000000
11
288.0918335618
21
196.1995644663
31
0.0000000000
0
SPLINE
5
3D1
100
AcDbEntity
8
0
100
AcDbSpline
62
7
6
CONTINUOUS
70
0
71
3
72
8
73
4
74
2
42
0.0000001000
43
0.0000001000
44
0.0000000001
40
0.0000000000
40
0.0000000000
40
0.0000000000
40
0.0000000000
40
1.0000000000
40
1.0000000000
40
1.0000000000
40
1.0000000000
10
288.2061578925
20
196.4993516543
30
0.0000000000
10
288.2036718265
20
196.4663926614
30
0.0000000000
10
288.1985947123
20
196.4334644031
30
0.0000000000
10
288.1908267433
20
196.4011909205
30
0.0000000000
11
288.2061578925
21
196.4993516543
31
0.0000000000
11
288.1908267433
21
196.4011909205
31
0.0000000000
0
SPLINE
5
3D2
100
AcDbEntity
8
0
100
AcDbSpline
62
7
6
CONTINUOUS
70
0
71
3
72
11
73
7
74
5
42
0.0000001000
43
0.0000001000
44
0.0000000001
40
0.0000000000
40
0.0000000000
40
0.0000000000
40
0.0000000000
40
0.4022936416
40
0.8362604861
40
0.9437327935
40
1.0000000000
40
1.0000000000
40
1.0000000000
40
1.0000000000
10
288.1908267433
20
196.4011909205
30
0.0000000000
10
288.1836792663
20
196.3714953881
30
0.0000000000
10
288.1640859341
20
196.3109186904
30
0.0000000000
10
288.1304861585
20
196.2476307877
30
0.0000000000
10
288.1032277135
20
196.2116315020
30
0.0000000000
10
288.0948471328
20
196.2025603296
30
0.0000000000
10
288.0918335618
20
196.1995644663
30
0.0000000000
11
288.1908267433
21
196.4011909205
31
0.0000000000
11
288.1624721365
21
196.3142534961
31
0.0000000000
11
288.1153829809
21
196.2281120807
31
0.0000000000
11
288.1004990731
21
196.2088881105
31
0.0000000000
11
288.0918335618
21
196.1995644663
31
0.0000000000
0
SPLINE
5
3D3
100
AcDbEntity
8
0
100
AcDbSpline
62
7
6
CONTINUOUS
70
0
71
3
72
55
73
51
74
49
42
0.0000001000
43
0.0000001000
44
0.0000000001
40
0.0000000000
40
0.0000000000
40
0.0000000000
40
0.0000000000
40
0.0095985000
40
0.0231460068
40
0.0342149866
40
0.0451260167
40
0.0578101475
40
0.0708722662
40
0.0838443144
40
0.0996541064
40
0.1119098715
40
0.1256330607
40
0.1406606845
40
0.1571083784
40
0.1751689766
40
0.1950517851
40
0.2169832408
40
0.2287929235
40
0.2412077404
40
0.2542610398
40
0.2679873099
40
0.2824221732
40
0.2976023728
40
0.3135657494
40
0.3303512072
40
0.3479984041
40
0.3665477459
40
0.3860395044
40
0.4063077305
40
0.4272325611
40
0.4488421726
40
0.4711645552
40
0.4942274127
40
0.5180580491
40
0.5426832399
40
0.5681290893
40
0.5944208702
40
0.6215828490
40
0.6496380928
40
0.6786082598
40
0.7085133724
40
0.7393715736
40
0.7711988669
40
0.8040088405
40
0.8378123772
40
0.8726173512
40
0.9084283141
40
0.9452461718
40
0.9830678560
40
1.0000000000
40
1.0000000000
40
1.0000000000
40
1.0000000000
10
302.6536613475
20
196.2089688497
30
0.0000000000
10
302.6544174767
20
196.2081481217
30
0.0000000000
10
302.6564778512
20
196.2059207303
30
0.0000000000
10
302.6608720487
20
196.2012032088
30
0.0000000000
10
302.6565254650
20
196.2058789427
30
0.0000000000
10
302.6543714782
20
196.2082065956
30
0.0000000000
10
302.6516160286
20
196.2114006151
30
0.0000000000
10
302.6489871377
20
196.2146655842
30
0.0000000000
10
302.6461397362
20
196.2182868204
30
0.0000000000
10
302.6434219278
20
196.2218704504
30
0.0000000000
10
302.6407028299
20
196.2255631770
30
0.0000000000
10
302.6380822902
20
196.2292197618
30
0.0000000000
10
302.6352484853
20
196.2332892664
30
0.0000000000
10
302.6322073999
20
196.2377935036
30
0.0000000000
10
302.6289438407
20
196.2427895014
30
0.0000000000
10
302.6254402418
20
196.2483463306
30
0.0000000000
10
302.6223876300
20
196.2533758298
30
0.0000000000
10
302.6198176182
20
196.2577389934
30
0.0000000000
10
302.6177747446
20
196.2612820289
30
0.0000000000
10
302.6156625463
20
196.2650275859
30
0.0000000000
10
302.6134803686
20
196.2689878666
30
0.0000000000
10
302.6112279318
20
196.2731755839
30
0.0000000000
10
302.6089053779
20
196.2776039706
30
0.0000000000
10
302.6065133274
20
196.2822867749
30
0.0000000000
10
302.6040529510
20
196.2872382287
30
0.0000000000
10
302.6015260422
20
196.2924730129
30
0.0000000000
10
302.5989351343
20
196.2980061381
30
0.0000000000
10
302.5962929164
20
196.3038322487
30
0.0000000000
10
302.5936189256
20
196.3099295600
30
0.0000000000
10
302.5909326257
20
196.3162745830
30
0.0000000000
10
302.5882444252
20
196.3228628821
30
0.0000000000
10
302.5855588728
20
196.3297049059
30
0.0000000000
10
302.5828812068
20
196.3368110475
30
0.0000000000
10
302.5802173949
20
196.3441915913
30
0.0000000000
10
302.5775741684
20
196.3518566499
30
0.0000000000
10
302.5749590556
20
196.3598160940
30
0.0000000000
10
302.5723804131
20
196.3680794734
30
0.0000000000
10
302.5698474525
20
196.3766559294
30
0.0000000000
10
302.5673702640
20
196.3855540989
30
0.0000000000
10
302.5649598328
20
196.3947820082
30
0.0000000000
10
302.5626280491
20
196.4043469595
30
0.0000000000
10
302.5603877100
20
196.4142554067
30
0.0000000000
10
302.5582525104
20
196.4245128246
30
0.0000000000
10
302.5562370229
20
196.4351235687
30
0.0000000000
10
302.5543566645
20
196.4460907292
30
0.0000000000
10
302.5526276478
20
196.4574159785
30
0.0000000000
10
302.5510669166
20
196.4690994163
30
0.0000000000
10
302.5496920599
20
196.4811394036
30
0.0000000000
10
302.5487470754
20
196.4911418165
30
0.0000000000
10
302.5482671464
20
196.4971297796
30
0.0000000000
10
302.5481268588
20
196.4989821227
30
0.0000000000
11
302.6536613475
21
196.2089688497
31
0.0000000000
11
302.6562832042
21
196.2061349804
31
0.0000000000
11
302.6593206556
21
196.2028707109
31
0.0000000000
11
302.6568417413
21
196.2055404130
31
0.0000000000
11
302.6544159175
21
196.2081883604
31
0.0000000000
11
302.6516898709
21
196.2113501478
31
0.0000000000
11
302.6489800378
21
196.2146876970
31
0.0000000000
11
302.6463434847
21
196.2180458221
31
0.0000000000
11
302.6431968812
21
196.2221900788
31
0.0000000000
11
302.6408050323
21
196.2254381552
31
0.0000000000
11
302.6381735664
21
196.2291091142
31
0.0000000000
11
302.6353468848
21
196.2331678118
31
0.0000000000
11
302.6323173139
21
196.2376540919
31
0.0000000000
11
302.6290659541
21
196.2426303280
31
0.0000000000
11
302.6255751428
21
196.2481655103
31
0.0000000000
11
302.6218291863
21
196.2543357041
31
0.0000000000
11
302.6198563774
21
196.2576847444
31
0.0000000000
11
302.6178152476
21
196.2612244888
31
0.0000000000
11
302.6157048154
21
196.2649666214
31
0.0000000000
11
302.6135244244
21
196.2689233384
31
0.0000000000
11
302.6112737899
21
196.2731073527
31
0.0000000000
11
302.6089530492
21
196.2775318966
31
0.0000000000
11
302.6065628169
21
196.2822107194
31
0.0000000000
11
302.6041042446
21
196.2871580807
31
0.0000000000
11
302.6015791227
21
196.2923886599
31
0.0000000000
11
302.5989899371
21
196.2979175518
31
0.0000000000
11
302.5963400477
21
196.3037599959
31
0.0000000000
11
302.5936607219
21
196.3098691327
31
0.0000000000
11
302.5909755603
21
196.3162110718
31
0.0000000000
11
302.5882884486
21
196.3227962746
31
0.0000000000
11
302.5856039287
21
196.3296351979
31
0.0000000000
11
302.5829272348
21
196.3367382462
31
0.0000000000
11
302.5802643297
21
196.3441157162
31
0.0000000000
11
302.5776219401
21
196.3517777351
31
0.0000000000
11
302.5750075900
21
196.3597341896
31
0.0000000000
11
302.5724296315
21
196.3679946476
31
0.0000000000
11
302.5698972728
21
196.3765682703
31
0.0000000000
11
302.5674206007
21
196.3854637164
31
0.0000000000
11
302.5650105979
21
196.3946890363
31
0.0000000000
11
302.5626791534
21
196.4042515579
31
0.0000000000
11
302.5604390636
21
196.4141577631
31
0.0000000000
11
302.5583040245
21
196.4244131563
31
0.0000000000
11
302.5562886115
21
196.4350221244
31
0.0000000000
11
302.5544082456
21
196.4459877904
31
0.0000000000
11
302.5526791462
21
196.4573118609
31
0.0000000000
11
302.5511182652
21
196.4689944696
31
0.0000000000
11
302.5497432045
21
196.4810340180
31
0.0000000000
11
302.5485721132
21
196.4934270155
31
0.0000000000
11
302.5481268588
21
196.4989821227
31
0.0000000000
0
SPLINE
5
3D4
100
AcDbEntity
8
0
100
AcDbSpline
62
7
6
CONTINUOUS
70
0
71
3
72
10
73
6
74
4
42
0.0000001000
43
0.0000001000
44
0.0000000001
40
0.0000000000
40
0.0000000000
40
0.0000000000
40
0.0000000000
40
0.2544597893
40
0.7400235204
40
1.0000000000
40
1.0000000000
40
1.0000000000
40
1.0000000000
10
303.2334013224
20
195.8981152548
30
0.0000000000
10
303.1883472199
20
195.9052561903
30
0.0000000000
10
303.0586056077
20
195.9349553326
30
0.0000000000
10
302.8940997923
20
196.0093061690
30
0.0000000000
10
302.7853788512
20
196.0878151033
30
0.0000000000
10
302.7495772902
20
196.1176489545
30
0.0000000000
11
303.2334013224
21
195.8981152548
31
0.0000000000
11
303.1000692552
21
195.9286744891
31
0.0000000000
11
302.8628959839
21
196.0358677430
31
0.0000000000
11
302.7495772902
21
196.1176489545
31
0.0000000000
0
SPLINE
5
3D5
100
AcDbEntity
8
0
100
AcDbSpline
62
7
6
CONTINUOUS
70
0
71
3
72
8
73
4
74
2
42
0.0000001000
43
0.0000001000
44
0.0000000001
40
0.0000000000
40
0.0000000000
40
0.0000000000
40
0.0000000000
40
1.0000000000
40
1.0000000000
40
1.0000000000
40
1.0000000000
10
302.7495772902
20
196.1176489545
30
0.0000000000
10
302.7185710899
20
196.1434867766
30
0.0000000000
10
302.6891478021
20
196.1711675517
30
0.0000000000
10
302.6615784191
20
196.2004645255
30
0.0000000000
11
302.7495772902
21
196.1176489545
31
0.0000000000
11
302.6615784191
21
196.2004645255
31
0.0000000000
0
SPLINE
5
3D6
100
AcDbEntity
8
0
100
AcDbSpline
62
7
6
CONTINUOUS
70
0
71
3
72
9
73
5
74
3
42
0.0000001000
43
0.0000001000
44
0.0000000001
40
0.0000000000
40
0.0000000000
40
0.0000000000
40
0.0000000000
40
0.2392444187
40
1.0000000000
40
1.0000000000
40
1.0000000000
40
1.0000000000
10
302.6537319570
20
196.2090303673
30
0.0000000000
10
302.6525731282
20
196.2103604634
30
0.0000000000
10
302.6477926826
20
196.2159715875
30
0.0000000000
10
302.6432679368
20
196.2217886001
30
0.0000000000
10
302.6399576808
20
196.2263154185
30
0.0000000000
11
302.6537319570
21
196.2090303673
31
0.0000000000
11
302.6503003740
21
196.2130571083
31
0.0000000000
11
302.6399576808
21
196.2263154185
31
0.0000000000
0
SPLINE
5
3D7
100
AcDbEntity
8
0
100
AcDbSpline
62
7
6
CONTINUOUS
70
0
71
3
72
9
73
5
74
3
42
0.0000001000
43
0.0000001000
44
0.0000000001
40
0.0000000000
40
0.0000000000
40
0.0000000000
40
0.0000000000
40
0.4999974869
40
1.0000000000
40
1.0000000000
40
1.0000000000
40
1.0000000000
10
297.3500930912
20
192.1343057681
30
0.0000000000
10
296.6924419756
20
192.1342894906
30
0.0000000000
10
295.3771332579
20
192.1329168133
30
0.0000000000
10
294.0618245401
20
192.1342894995
30
0.0000000000
10
293.4041668134
20
192.1343057681
30
0.0000000000
11
297.3500930912
21
192.1343057681
31
0.0000000000
11
295.3771398690
21
192.1336031542
31
0.0000000000
11
293.4041668134
21
192.1343057681
31
0.0000000000
0
SPLINE
5
3D8
100
AcDbEntity
8
0
100
AcDbSpline
62
7
6
CONTINUOUS
70
0
71
3
72
8
73
4
74
2
42
0.0000001000
43
0.0000001000
44
0.0000000001
40
0.0000000000
40
0.0000000000
40
0.0000000000
40
0.0000000000
40
1.0000000000
40
1.0000000000
40
1.0000000000
40
1.0000000000
10
302.5507796745
20
196.4720954324
30
0.0000000000
10
302.5497032724
20
196.4810514528
30
0.0000000000
10
302.5488229468
20
196.4900184612
30
0.0000000000
10
302.5481372850
20
196.4989829201
30
0.0000000000
11
302.5507796745
21
196.4720954324
31
0.0000000000
11
302.5481372850
21
196.4989829201
31
0.0000000000
0
SPLINE
5
3D9
100
AcDbEntity
8
0
100
AcDbSpline
62
7
6
CONTINUOUS
70
0
71
3
72
11
73
7
74
5
42
0.0000001000
43
0.0000001000
44
0.0000000001
40
0.0000000000
40
0.0000000000
40
0.0000000000
40
0.0000000000
40
0.0791862907
40
0.4475986569
40
0.8159995551
40
1.0000000000
40
1.0000000000
40
1.0000000000
40
1.0000000000
10
124.4650114692
20
120.1539069121
30
0.0000000000
10
124.4445396737
20
120.1556696400
30
0.0000000000
10
124.3291308810
20
120.1691924458
30
0.0000000000
10
124.1245767966
20
120.2305747903
30
0.0000000000
10
123.9226209070
20
120.3620797798
30
0.0000000000
10
123.8217426600
20
120.4645149665
30
0.0000000000
10
123.7907535786
20
120.5008003081
30
0.0000000000
11
124.4650114692
21
120.1539069121
31
0.0000000000
11
124.4038052189
21
120.1610849501
31
0.0000000000
11
124.1303499577
21
120.2430264144
31
0.0000000000
11
123.8911957786
21
120.3988865721
31
0.0000000000
11
123.7907535786
21
120.5008003081
31
0.0000000000
0
SPLINE
5
3DA
100
AcDbEntity
8
0
100
AcDbSpline
62
7
6
CONTINUOUS
70
0
71
3
72
8
73
4
74
2
42
0.0000001000
43
0.0000001000
44
0.0000000001
40
0.0000000000
40
0.0000000000
40
0.0000000000
40
0.0000000000
40
1.0000000000
40
1.0000000000
40
1.0000000000
40
1.0000000000
10
123.7907535786
20
120.5008003081
30
0.0000000000
10
123.7843231390
20
120.5083297569
30
0.0000000000
10
123.7780051975
20
120.5159524286
30
0.0000000000
10
123.7718029975
20
120.5236643269
30
0.0000000000
11
123.7907535786
21
120.5008003081
31
0.0000000000
11
123.7718029975
21
120.5236643269
31
0.0000000000
0
SPLINE
5
3DB
100
AcDbEntity
8
0
100
AcDbSpline
62
7
6
CONTINUOUS
70
0
71
3
72
8
73
4
74
2
42
0.0000001000
43
0.0000001000
44
0.0000000001
40
0.0000000000
40
0.0000000000
40
0.0000000000
40
0.0000000000
40
1.0000000000
40
1.0000000000
40
1.0000000000
40
1.0000000000
10
123.7718029975
20
120.5236643269
30
0.0000000000
10
123.7480525726
20
120.5531959224
30
0.0000000000
10
123.7259993772
20
120.5840359321
30
0.0000000000
10
123.7058255397
20
120.6159599435
30
0.0000000000
11
123.7718029975
21
120.5236643269
31
0.0000000000
11
123.7058255397
21
120.6159599435
31
0.0000000000
0
SPLINE
5
3DC
100
AcDbEntity
8
0
100
AcDbSpline
62
7
6
CONTINUOUS
70
0
71
3
72
8
73
4
74
2
42
0.0000001000
43
0.0000001000
44
0.0000000001
40
0.0000000000
40
0.0000000000
40
0.0000000000
40
0.0000000000
40
1.0000000000
40
1.0000000000
40
1.0000000000
40
1.0000000000
10
98.3317758312
20
120.6158926349
30
0.0000000000
10
98.3063322863
20
120.5756366599
30
0.0000000000
10
98.2779002118
20
120.5371047758
30
0.0000000000
10
98.2468448822
20
120.5007469960
30
0.0000000000
11
98.3317758312
21
120.6158926349
31
0.0000000000
11
98.2468448822
21
120.5007469960
31
0.0000000000
0
SPLINE
5
3DD
100
AcDbEntity
8
0
100
AcDbSpline
62
7
6
CONTINUOUS
70
0
71
3
72
11
73
7
74
5
42
0.0000001000
43
0.0000001000
44
0.0000000001
40
0.0000000000
40
0.0000000000
40
0.0000000000
40
0.0000000000
40
0.1840048172
40
0.5524140411
40
0.9208341247
40
1.0000000000
40
1.0000000000
40
1.0000000000
40
1.0000000000
10
98.2468448822
20
120.5007469960
30
0.0000000000
10
98.2158553608
20
120.4644662607
30
0.0000000000
10
98.1149773790
20
120.3620446677
30
0.0000000000
10
97.9130290773
20
120.2305590641
30
0.0000000000
10
97.7084931321
20
120.1691889765
30
0.0000000000
10
97.5930980676
20
120.1556688930
30
0.0000000000
10
97.5726334205
20
120.1539067573
30
0.0000000000
11
98.2468448822
21
120.5007469960
31
0.0000000000
11
98.1464028279
21
120.3988466483
31
0.0000000000
11
97.9072570811
21
120.2430091242
31
0.0000000000
11
97.6338183798
21
120.1610817035
31
0.0000000000
11
97.5726334205
21
120.1539067573
31
0.0000000000
0
SPLINE
5
3DE
100
AcDbEntity
8
0
100
AcDbSpline
62
7
6
CONTINUOUS
70
0
71
3
72
11
73
7
74
5
42
0.0000001000
43
0.0000001000
44
0.0000000001
40
0.0000000000
40
0.0000000000
40
0.0000000000
40
0.0000000000
40
0.0791862907
40
0.4475986569
40
0.8159995551
40
1.0000000000
40
1.0000000000
40
1.0000000000
40
1.0000000000
10
97.5726321737
20
105.0730112807
30
0.0000000000
10
97.5931039691
20
105.0712485527
30
0.0000000000
10
97.7085127619
20
105.0577257469
30
0.0000000000
10
97.9130668462
20
104.9963434025
30
0.0000000000
10
98.1150227359
20
104.8648384130
30
0.0000000000
10
98.2159009829
20
104.7624032263
30
0.0000000000
10
98.2468900642
20
104.7261178846
30
0.0000000000
11
97.5726321737
21
105.0730112807
31
0.0000000000
11
97.6338384239
21
105.0658332427
31
0.0000000000
11
97.9072936852
21
104.9838917784
31
0.0000000000
11
98.1464478643
21
104.8280316207
31
0.0000000000
11
98.2468900642
21
104.7261178846
31
0.0000000000
0
SPLINE
5
3DF
100
AcDbEntity
8
0
100
AcDbSpline
62
7
6
CONTINUOUS
70
0
71
3
72
8
73
4
74
2
42
0.0000001000
43
0.0000001000
44
0.0000000001
40
0.0000000000
40
0.0000000000
40
0.0000000000
40
0.0000000000
40
1.0000000000
40
1.0000000000
40
1.0000000000
40
1.0000000000
10
98.2468900642
20
104.7261178846
30
0.0000000000
10
98.2533205039
20
104.7185884359
30
0.0000000000
10
98.2596384454
20
104.7109657641
30
0.0000000000
10
98.2658406453
20
104.7032538659
30
0.0000000000
11
98.2468900642
21
104.7261178846
31
0.0000000000
11
98.2658406453
21
104.7032538659
31
0.0000000000
0
SPLINE
5
3E0
100
AcDbEntity
8
0
100
AcDbSpline
62
7
6
CONTINUOUS
70
0
71
3
72
8
73
4
74
2
42
0.0000001000
43
0.0000001000
44
0.0000000001
40
0.0000000000
40
0.0000000000
40
0.0000000000
40
0.0000000000
40
1.0000000000
40
1.0000000000
40
1.0000000000
40
1.0000000000
10
98.2658406453
20
104.7032538659
30
0.0000000000
10
98.2895910702
20
104.6737222704
30
0.0000000000
10
98.3116442656
20
104.6428822607
30
0.0000000000
10
98.3318181032
20
104.6109582493
30
0.0000000000
11
98.2658406453
21
104.7032538659
31
0.0000000000
11
98.3318181032
21
104.6109582493
31
0.0000000000
0
SPLINE
5
3E1
100
AcDbEntity
8
0
100
AcDbSpline
62
7
6
CONTINUOUS
70
0
71
3
72
8
73
4
74
2
42
0.0000001000
43
0.0000001000
44
0.0000000001
40
0.0000000000
40
0.0000000000
40
0.0000000000
40
0.0000000000
40
1.0000000000
40
1.0000000000
40
1.0000000000
40
1.0000000000
10
123.7058678116
20
104.6110255578
30
0.0000000000
10
123.7313113565
20
104.6512815329
30
0.0000000000
10
123.7597434310
20
104.6898134169
30
0.0000000000
10
123.7907987607
20
104.7261711967
30
0.0000000000
11
123.7058678116
21
104.6110255578
31
0.0000000000
11
123.7907987607
21
104.7261711967
31
0.0000000000
0
SPLINE
5
3E2
100
AcDbEntity
8
0
100
AcDbSpline
62
7
6
CONTINUOUS
70
0
71
3
72
11
73
7
74
5
42
0.0000001000
43
0.0000001000
44
0.0000000001
40
0.0000000000
40
0.0000000000
40
0.0000000000
40
0.0000000000
40
0.1840048172
40
0.5524140411
40
0.9208341247
40
1.0000000000
40
1.0000000000
40
1.0000000000
40
1.0000000000
10
123.7907987607
20
104.7261711967
30
0.0000000000
10
123.8217882820
20
104.7624519321
30
0.0000000000
10
123.9226662639
20
104.8648735251
30
0.0000000000
10
124.1246145655
20
104.9963591287
30
0.0000000000
10
124.3291505108
20
105.0577292162
30
0.0000000000
10
124.4445455753
20
105.0712492997
30
0.0000000000
10
124.4650102223
20
105.0730114354
30
0.0000000000
11
123.7907987607
21
104.7261711967
31
0.0000000000
11
123.8912408149
21
104.8280715444
31
0.0000000000
11
124.1303865617
21
104.9839090686
31
0.0000000000
11
124.4038252630
21
105.0658364893
31
0.0000000000
11
124.4650102223
21
105.0730114354
31
0.0000000000
0
SPLINE
5
3E3
100
AcDbEntity
8
0
100
AcDbSpline
62
7
6
CONTINUOUS
70
0
71
3
72
16
73
12
74
10
42
0.0000001000
43
0.0000001000
44
0.0000000001
40
0.0000000000
40
0.0000000000
40
0.0000000000
40
0.0000000000
40
0.1164032130
40
0.2574533964
40
0.3909314713
40
0.5159687027
40
0.6319664048
40
0.7385527274
40
0.8355110141
40
0.9227297397
40
1.0000000000
40
1.0000000000
40
1.0000000000
40
1.0000000000
10
92.9524410100
20
105.2307827663
30
0.0000000000
10
93.1254250786
20
105.2307832412
30
0.0000000000
10
93.5080215999
20
105.2295306688
30
0.0000000000
10
94.0889485215
20
105.2234460219
30
0.0000000000
10
94.6826383317
20
105.2125381989
30
0.0000000000
10
95.2390060912
20
105.1979165688
30
0.0000000000
10
95.7552977766
20
105.1801721675
30
0.0000000000
10
96.2297328086
20
105.1598545685
30
0.0000000000
10
96.6612537093
20
105.1374803163
30
0.0000000000
10
97.0490582120
20
105.1135589263
30
0.0000000000
10
97.2928521108
20
105.0958273361
30
0.0000000000
10
97.4073286521
20
105.0867362725
30
0.0000000000
11
92.9524410100
21
105.2307827663
31
0.0000000000
11
93.4713903373
21
105.2290874836
31
0.0000000000
11
94.1001885176
21
105.2224777464
31
0.0000000000
11
94.6951620083
21
105.2114984990
31
0.0000000000
11
95.2524114349
21
105.1967850641
31
0.0000000000
11
95.7692466553
21
105.1789338111
31
0.0000000000
11
96.2439923533
21
105.1584963406
31
0.0000000000
11
96.6756674484
21
105.1359883885
31
0.0000000000
11
97.0637606489
21
105.1118947641
31
0.0000000000
11
97.4073286521
21
105.0867362725
31
0.0000000000
0
SPLINE
5
3E4
100
AcDbEntity
8
0
100
AcDbSpline
62
7
6
CONTINUOUS
70
0
71
3
72
8
73
4
74
2
42
0.0000001000
43
0.0000001000
44
0.0000000001
40
0.0000000000
40
0.0000000000
40
0.0000000000
40
0.0000000000
40
1.0000000000
40
1.0000000000
40
1.0000000000
40
1.0000000000
10
97.4073286521
20
105.0867362725
30
0.0000000000
10
97.4624825432
20
105.0823562701
30
0.0000000000
10
97.5176253031
20
105.0777995099
30
0.0000000000
10
97.5727446359
20
105.0730291632
30
0.0000000000
11
97.4073286521
21
105.0867362725
31
0.0000000000
11
97.5727446359
21
105.0730291632
31
0.0000000000
0
SPLINE
5
3E5
100
AcDbEntity
8
0
100
AcDbSpline
62
7
6
CONTINUOUS
70
0
71
3
72
9
73
5
74
3
42
0.0000001000
43
0.0000001000
44
0.0000000001
40
0.0000000000
40
0.0000000000
40
0.0000000000
40
0.0000000000
40
0.0323347413
40
1.0000000000
40
1.0000000000
40
1.0000000000
40
1.0000000000
10
91.8527813013
20
105.2550548009
30
0.0000000000
10
91.8556458405
20
105.2545340994
30
0.0000000000
10
91.9442866377
20
105.2386896085
30
0.0000000000
10
92.0344533154
20
105.2308678288
30
0.0000000000
10
92.1215513129
20
105.2308412080
30
0.0000000000
11
91.8527813013
21
105.2550548009
31
0.0000000000
11
91.8613797903
21
105.2535178324
31
0.0000000000
11
92.1215513129
21
105.2308412080
31
0.0000000000
0
SPLINE
5
3E6
100
AcDbEntity
8
0
100
AcDbSpline
62
7
6
CONTINUOUS
70
0
71
3
72
8
73
4
74
2
42
0.0000001000
43
0.0000001000
44
0.0000000001
40
0.0000000000
40
0.0000000000
40
0.0000000000
40
0.0000000000
40
1.0000000000
40
1.0000000000
40
1.0000000000
40
1.0000000000
10
92.1215512953
20
119.9961357300
30
0.0000000000
10
92.0312483842
20
119.9961357300
30
0.0000000000
10
91.9406522378
20
119.9878956068
30
0.0000000000
10
91.8515160073
20
119.9716032510
30
0.0000000000
11
92.1215512953
21
119.9961357300
31
0.0000000000
11
91.8515160073
21
119.9716032510
31
0.0000000000
0
SPLINE
5
3E7
100
AcDbEntity
8
0
100
AcDbSpline
62
7
6
CONTINUOUS
70
0
71
3
72
8
73
4
74
2
42
0.0000001000
43
0.0000001000
44
0.0000000001
40
0.0000000000
40
0.0000000000
40
0.0000000000
40
0.0000000000
40
1.0000000000
40
1.0000000000
40
1.0000000000
40
1.0000000000
10
97.5727445946
20
120.1538897676
30
0.0000000000
10
97.5164336710
20
120.1490160950
30
0.0000000000
10
97.4600978640
20
120.1443649092
30
0.0000000000
10
97.4037506645
20
120.1398978805
30
0.0000000000
11
97.5727445946
21
120.1538897676
31
0.0000000000
11
97.4037506645
21
120.1398978805
31
0.0000000000
0
SPLINE
5
3E8
100
AcDbEntity
8
0
100
AcDbSpline
62
7
6
CONTINUOUS
70
0
71
3
72
16
73
12
74
10
42
0.0000001000
43
0.0000001000
44
0.0000000001
40
0.0000000000
40
0.0000000000
40
0.0000000000
40
0.0000000000
40
0.0775303004
40
0.1650243349
40
0.2622659586
40
0.3691457535
40
0.4854502209
40
0.6108103812
40
0.7446295738
40
0.8860402309
40
1.0000000000
40
1.0000000000
40
1.0000000000
40
1.0000000000
10
97.4037506645
20
120.1398978805
30
0.0000000000
10
97.2889796687
20
120.1307991969
30
0.0000000000
10
97.0445873861
20
120.1130587607
30
0.0000000000
10
96.6558783412
20
120.0891319769
30
0.0000000000
10
96.2234384762
20
120.0667655148
30
0.0000000000
10
95.7480720555
20
120.0464668628
30
0.0000000000
10
95.2308238733
20
120.0287528954
30
0.0000000000
10
94.6734611647
20
120.0141743015
30
0.0000000000
10
94.0787268756
20
120.0033235892
30
0.0000000000
10
93.5008531402
20
119.9973495302
30
0.0000000000
10
93.1216576143
20
119.9961349350
30
0.0000000000
10
92.9524410103
20
119.9961353985
30
0.0000000000
11
97.4037506645
21
120.1398978805
31
0.0000000000
11
97.0593004992
21
120.1147225444
31
0.0000000000
11
96.6702925329
21
120.0906234677
31
0.0000000000
11
96.2377016467
21
120.0681231642
31
0.0000000000
11
95.7620295180
21
120.0477050416
31
0.0000000000
11
95.2442424893
21
120.0298846142
31
0.0000000000
11
94.6860018390
21
120.0152145398
31
0.0000000000
11
94.0899866468
21
120.0042928640
31
0.0000000000
11
93.4600881158
21
119.9977577136
31
0.0000000000
11
92.9524410103
21
119.9961353985
31
0.0000000000
0
SPLINE
5
3E9
100
AcDbEntity
8
0
100
AcDbSpline
62
7
6
CONTINUOUS
70
0
71
3
72
16
73
12
74
10
42
0.0000001000
43
0.0000001000
44
0.0000000001
40
0.0000000000
40
0.0000000000
40
0.0000000000
40
0.0000000000
40
0.1164032130
40
0.2574533964
40
0.3909314713
40
0.5159687027
40
0.6319664048
40
0.7385527274
40
0.8355110141
40
0.9227297397
40
1.0000000000
40
1.0000000000
40
1.0000000000
40
1.0000000000
10
129.0852026329
20
119.9961354265
30
0.0000000000
10
128.9122185642
20
119.9961349516
30
0.0000000000
10
128.5296220430
20
119.9973875239
30
0.0000000000
10
127.9486951213
20
120.0034721709
30
0.0000000000
10
127.3550053111
20
120.0143799938
30
0.0000000000
10
126.7986375516
20
120.0290016240
30
0.0000000000
10
126.2823458662
20
120.0467460253
30
0.0000000000
10
125.8079108342
20
120.0670636243
30
0.0000000000
10
125.3763899336
20
120.0894378765
30
0.0000000000
10
124.9885854309
20
120.1133592665
30
0.0000000000
10
124.7447915320
20
120.1310908567
30
0.0000000000
10
124.6303149907
20
120.1401819203
30
0.0000000000
11
129.0852026329
21
119.9961354265
31
0.0000000000
11
128.5662533055
21
119.9978307092
31
0.0000000000
11
127.9374551253
21
120.0044404464
31
0.0000000000
11
127.3424816346
21
120.0154196938
31
0.0000000000
11
126.7852322079
21
120.0301331287
31
0.0000000000
11
126.2683969876
21
120.0479843817
31
0.0000000000
11
125.7936512895
21
120.0684218521
31
0.0000000000
11
125.3619761944
21
120.0909298043
31
0.0000000000
11
124.9738829939
21
120.1150234287
31
0.0000000000
11
124.6303149907
21
120.1401819203
31
0.0000000000
0
SPLINE
5
3EA
100
AcDbEntity
8
0
100
AcDbSpline
62
7
6
CONTINUOUS
70
0
71
3
72
8
73
4
74
2
42
0.0000001000
43
0.0000001000
44
0.0000000001
40
0.0000000000
40
0.0000000000
40
0.0000000000
40
0.0000000000
40
1.0000000000
40
1.0000000000
40
1.0000000000
40
1.0000000000
10
124.6303149907
20
120.1401819203
30
0.0000000000
10
124.5751610996
20
120.1445619227
30
0.0000000000
10
124.5200183397
20
120.1491186829
30
0.0000000000
10
124.4648990069
20
120.1538890296
30
0.0000000000
11
124.6303149907
21
120.1401819203
31
0.0000000000
11
124.4648990069
21
120.1538890296
31
0.0000000000
0
SPLINE
5
3EB
100
AcDbEntity
8
0
100
AcDbSpline
62
7
6
CONTINUOUS
70
0
71
3
72
9
73
5
74
3
42
0.0000001000
43
0.0000001000
44
0.0000000001
40
0.0000000000
40
0.0000000000
40
0.0000000000
40
0.0000000000
40
0.0323347413
40
1.0000000000
40
1.0000000000
40
1.0000000000
40
1.0000000000
10
130.1848623416
20
119.9718633919
30
0.0000000000
10
130.1819978023
20
119.9723840933
30
0.0000000000
10
130.0933570051
20
119.9882285843
30
0.0000000000
10
130.0031903274
20
119.9960503640
30
0.0000000000
10
129.9160923299
20
119.9960769848
30
0.0000000000
11
130.1848623416
21
119.9718633919
31
0.0000000000
11
130.1762638525
21
119.9734003603
31
0.0000000000
11
129.9160923299
21
119.9960769848
31
0.0000000000
0
SPLINE
5
3EC
100
AcDbEntity
8
0
100
AcDbSpline
62
7
6
CONTINUOUS
70
0
71
3
72
8
73
4
74
2
42
0.0000001000
43
0.0000001000
44
0.0000000001
40
0.0000000000
40
0.0000000000
40
0.0000000000
40
0.0000000000
40
1.0000000000
40
1.0000000000
40
1.0000000000
40
1.0000000000
10
129.9160923475
20
105.2307824628
30
0.0000000000
10
130.0063952587
20
105.2307824628
30
0.0000000000
10
130.0969914050
20
105.2390225860
30
0.0000000000
10
130.1861276356
20
105.2553149418
30
0.0000000000
11
129.9160923475
21
105.2307824628
31
0.0000000000
11
130.1861276356
21
105.2553149418
31
0.0000000000
0
SPLINE
5
3ED
100
AcDbEntity
8
0
100
AcDbSpline
62
7
6
CONTINUOUS
70
0
71
3
72
8
73
4
74
2
42
0.0000001000
43
0.0000001000
44
0.0000000001
40
0.0000000000
40
0.0000000000
40
0.0000000000
40
0.0000000000
40
1.0000000000
40
1.0000000000
40
1.0000000000
40
1.0000000000
10
124.4648990482
20
105.0730284252
30
0.0000000000
10
124.5212099718
20
105.0779020978
30
0.0000000000
10
124.5775457788
20
105.0825532836
30
0.0000000000
10
124.6338929783
20
105.0870203123
30
0.0000000000
11
124.4648990482
21
105.0730284252
31
0.0000000000
11
124.6338929783
21
105.0870203123
31
0.0000000000
0
SPLINE
5
3EE
100
AcDbEntity
8
0
100
AcDbSpline
62
7
6
CONTINUOUS
70
0
71
3
72
16
73
12
74
10
42
0.0000001000
43
0.0000001000
44
0.0000000001
40
0.0000000000
40
0.0000000000
40
0.0000000000
40
0.0000000000
40
0.0775303004
40
0.1650243349
40
0.2622659586
40
0.3691457535
40
0.4854502209
40
0.6108103812
40
0.7446295738
40
0.8860402309
40
1.0000000000
40
1.0000000000
40
1.0000000000
40
1.0000000000
10
124.6338929783
20
105.0870203123
30
0.0000000000
10
124.7486639741
20
105.0961189959
30
0.0000000000
10
124.9930562567
20
105.1138594321
30
0.0000000000
10
125.3817653017
20
105.1377862158
30
0.0000000000
10
125.8142051667
20
105.1601526780
30
0.0000000000
10
126.2895715873
20
105.1804513299
30
0.0000000000
10
126.8068197695
20
105.1981652974
30
0.0000000000
10
127.3641824781
20
105.2127438912
30
0.0000000000
10
127.9589167672
20
105.2235946036
30
0.0000000000
10
128.5367905026
20
105.2295686626
30
0.0000000000
10
128.9159860286
20
105.2307832578
30
0.0000000000
10
129.0852026325
20
105.2307827943
30
0.0000000000
11
124.6338929783
21
105.0870203123
31
0.0000000000
11
124.9783431436
21
105.1121956484
31
0.0000000000
11
125.3673511099
21
105.1362947251
31
0.0000000000
11
125.7999419962
21
105.1587950286
31
0.0000000000
11
126.2756141248
21
105.1792131511
31
0.0000000000
11
126.7934011535
21
105.1970335786
31
0.0000000000
11
127.3516418039
21
105.2117036530
31
0.0000000000
11
127.9476569960
21
105.2226253288
31
0.0000000000
11
128.5775555270
21
105.2291604791
31
0.0000000000
11
129.0852026325
21
105.2307827943
31
0.0000000000
0
SPLINE
5
3EF
100
AcDbEntity
8
0
100
AcDbSpline
62
7
6
CONTINUOUS
70
0
71
3
72
10
73
6
74
4
42
0.0000001000
43
0.0000001000
44
0.0000000001
40
0.0000000000
40
0.0000000000
40
0.0000000000
40
0.0000000000
40
0.2261125033
40
0.8484452624
40
1.0000000000
40
1.0000000000
40
1.0000000000
40
1.0000000000
10
137.5851750875
20
118.6264220172
30
0.0000000000
10
137.5807088153
20
118.6270420314
30
0.0000000000
10
137.5639611567
20
118.6294495476
30
0.0000000000
10
137.5442753311
20
118.6326424820
30
0.0000000000
10
137.5290833805
20
118.6353580060
30
0.0000000000
10
137.5261099502
20
118.6358991138
30
0.0000000000
11
137.5851750875
21
118.6264220172
31
0.0000000000
11
137.5717854589
21
118.6283466625
31
0.0000000000
11
137.5350352668
21
118.6343037923
31
0.0000000000
11
137.5261099502
21
118.6358991138
31
0.0000000000
0
SPLINE
5
3F0
100
AcDbEntity
8
0
100
AcDbSpline
62
7
6
CONTINUOUS
70
0
71
3
72
19
73
15
74
13
42
0.0000001000
43
0.0000001000
44
0.0000000001
40
0.0000000000
40
0.0000000000
40
0.0000000000
40
0.0000000000
40
0.0544664594
40
0.1725618958
40
0.2823423454
40
0.3872423817
40
0.4882965291
40
0.5853401181
40
0.6782795867
40
0.7670247632
40
0.8492720518
40
0.9209560164
40
0.9760727603
40
1.0000000000
40
1.0000000000
40
1.0000000000
40
1.0000000000
10
138.9550250972
20
117.1231182107
30
0.0000000000
10
138.9550263124
20
117.1636552707
30
0.0000000000
10
138.9498454324
20
117.2921177139
30
0.0000000000
10
138.9144229413
20
117.4998457469
30
0.0000000000
10
138.8320745616
20
117.7340817211
30
0.0000000000
10
138.7196914691
20
117.9409958584
30
0.0000000000
10
138.5828971209
20
118.1207739271
30
0.0000000000
10
138.4276795318
20
118.2723068178
30
0.0000000000
10
138.2601897766
20
118.3951080876
30
0.0000000000
10
138.0875115390
20
118.4890980507
30
0.0000000000
10
137.9192643619
20
118.5549778610
30
0.0000000000
10
137.7690894146
20
118.5954370875
30
0.0000000000
10
137.6589189086
20
118.6157159420
30
0.0000000000
10
137.6008271896
20
118.6242628005
30
0.0000000000
10
137.5832211434
20
118.6266949965
30
0.0000000000
11
138.9550250972
21
117.1231182107
31
0.0000000000
11
138.9501150977
21
117.2445998206
31
0.0000000000
11
138.9059130911
21
117.5040142873
31
0.0000000000
11
138.8247768531
21
117.7347918565
31
0.0000000000
11
138.7132185382
21
117.9402030393
31
0.0000000000
11
138.5768668086
21
118.1194075682
31
0.0000000000
11
138.4221406882
21
118.2704737313
31
0.0000000000
11
138.2551331994
21
118.3929404288
31
0.0000000000
11
138.0814618896
21
118.4875135068
31
0.0000000000
11
137.9108387978
21
118.5544207540
31
0.0000000000
11
137.7566794459
21
118.5962525048
31
0.0000000000
11
137.6359678198
21
118.6188970990
31
0.0000000000
11
137.5832211434
21
118.6266949965
31
0.0000000000
0
SPLINE
5
3F1
100
AcDbEntity
8
0
100
AcDbSpline
62
7
6
CONTINUOUS
70
0
71
3
72
10
73
6
74
4
42
0.0000001000
43
0.0000001000
44
0.0000000001
40
0.0000000000
40
0.0000000000
40
0.0000000000
40
0.0000000000
40
0.1891899584
40
0.8109777571
40
1.0000000000
40
1.0000000000
40
1.0000000000
40
1.0000000000
10
84.5115337758
20
118.6358991303
30
0.0000000000
10
84.5078219649
20
118.6352236511
30
0.0000000000
10
84.4918996556
20
118.6323903499
30
0.0000000000
10
84.4722088512
20
118.6292283656
30
0.0000000000
10
84.4562023527
20
118.6269403467
30
0.0000000000
10
84.4524687041
20
118.6264220368
30
0.0000000000
11
84.5115337758
21
118.6358991303
31
0.0000000000
11
84.5003905229
21
118.6339163505
31
0.0000000000
11
84.4636632395
21
118.6280221342
31
0.0000000000
11
84.4524687041
21
118.6264220368
31
0.0000000000
0
SPLINE
5
3F2
100
AcDbEntity
8
0
100
AcDbSpline
62
7
6
CONTINUOUS
70
0
71
3
72
8
73
4
74
2
42
0.0000001000
43
0.0000001000
44
0.0000000001
40
0.0000000000
40
0.0000000000
40
0.0000000000
40
0.0000000000
40
1.0000000000
40
1.0000000000
40
1.0000000000
40
1.0000000000
10
84.4540350371
20
118.6266403426
30
0.0000000000
10
84.4377798195
20
118.6243924211
30
0.0000000000
10
84.4215427142
20
118.6220124229
30
0.0000000000
10
84.4053298660
20
118.6194720873
30
0.0000000000
11
84.4540350371
21
118.6266403426
31
0.0000000000
11
84.4053298660
21
118.6194720873
31
0.0000000000
0
SPLINE
5
3F3
100
AcDbEntity
8
0
100
AcDbSpline
62
7
6
CONTINUOUS
70
0
71
3
72
19
73
15
74
13
42
0.0000001000
43
0.0000001000
44
0.0000000001
40
0.0000000000
40
0.0000000000
40
0.0000000000
40
0.0000000000
40
0.0512408872
40
0.1174798880
40
0.1940811591
40
0.2768953736
40
0.3639565692
40
0.4548528224
40
0.5495380801
40
0.6479456252
40
0.7499539203
40
0.8555469715
40
0.9646975713
40
1.0000000000
40
1.0000000000
40
1.0000000000
40
1.0000000000
10
84.4053298660
20
118.6194720873
30
0.0000000000
10
84.3685569806
20
118.6137102699
30
0.0000000000
10
84.2845339570
20
118.5986090453
30
0.0000000000
10
84.1477515944
20
118.5637656036
30
0.0000000000
10
83.9933846760
20
118.5077239637
30
0.0000000000
10
83.8327460467
20
118.4277406162
30
0.0000000000
10
83.6743565674
20
118.3229620036
30
0.0000000000
10
83.5241590216
20
118.1930211193
30
0.0000000000
10
83.3872448367
20
118.0378712597
30
0.0000000000
10
83.2688535609
20
117.8583137780
30
0.0000000000
10
83.1743567392
20
117.6562385250
30
0.0000000000
10
83.1090565522
20
117.4346742666
30
0.0000000000
10
83.0852950900
20
117.2538865569
30
0.0000000000
10
83.0826093134
20
117.1488004183
30
0.0000000000
10
83.0826107029
20
117.1231204248
30
0.0000000000
11
84.4053298660
21
118.6194720873
31
0.0000000000
11
84.2954941866
21
118.5993974052
31
0.0000000000
11
84.1556899348
21
118.5635119708
31
0.0000000000
11
83.9988254357
21
118.5064638418
31
0.0000000000
11
83.8373045493
21
118.4259982281
31
0.0000000000
11
83.6790920890
21
118.3213172089
31
0.0000000000
11
83.5293086611
21
118.1917227476
31
0.0000000000
11
83.3927965955
21
118.0370197870
31
0.0000000000
11
83.2747621480
21
117.8579970649
31
0.0000000000
11
83.1806088257
21
117.6566443767
31
0.0000000000
11
83.1155598965
21
117.4359410424
31
0.0000000000
11
83.0845814951
21
117.2001253043
31
0.0000000000
11
83.0826107029
21
117.1231204248
31
0.0000000000
0
SPLINE
5
3F4
100
AcDbEntity
8
0
100
AcDbSpline
62
7
6
CONTINUOUS
70
0
71
3
72
10
73
6
74
4
42
0.0000001000
43
0.0000001000
44
0.0000000001
40
0.0000000000
40
0.0000000000
40
0.0000000000
40
0.0000000000
40
0.2261692816
40
0.8485029040
40
1.0000000000
40
1.0000000000
40
1.0000000000
40
1.0000000000
10
84.4524685694
20
106.6004961730
30
0.0000000000
10
84.4569359620
20
106.5998760034
30
0.0000000000
10
84.4736847514
20
106.5974683039
30
0.0000000000
10
84.4933705644
20
106.5942753243
30
0.0000000000
10
84.5085613928
20
106.5915599813
30
0.0000000000
10
84.5115336914
20
106.5910190793
30
0.0000000000
11
84.4524685694
21
106.6004961730
31
0.0000000000
11
84.4658615545
21
106.5985710289
31
0.0000000000
11
84.5026117737
21
106.5926138047
31
0.0000000000
11
84.5115336914
21
106.5910190793
31
0.0000000000
0
SPLINE
5
3F5
100
AcDbEntity
8
0
100
AcDbSpline
62
7
6
CONTINUOUS
70
0
71
3
72
19
73
15
74
13
42
0.0000001000
43
0.0000001000
44
0.0000000001
40
0.0000000000
40
0.0000000000
40
0.0000000000
40
0.0000000000
40
0.0544539947
40
0.1725401072
40
0.2823149521
40
0.3872140388
40
0.4882714684
40
0.5853205667
40
0.6782657989
40
0.7670155389
40
0.8492651273
40
0.9209478839
40
0.9760729901
40
1.0000000000
40
1.0000000000
40
1.0000000000
40
1.0000000000
10
83.0826185681
20
108.1037980962
30
0.0000000000
10
83.0826173664
20
108.0632702598
30
0.0000000000
10
83.0877964660
20
107.9348238915
30
0.0000000000
10
83.1232104051
20
107.7271149484
30
0.0000000000
10
83.2055466720
20
107.4928869632
30
0.0000000000
10
83.3179205571
20
107.2859701786
30
0.0000000000
10
83.4547119705
20
107.1061819913
30
0.0000000000
10
83.6099330323
20
106.9546364913
30
0.0000000000
10
83.7774300044
20
106.8318243958
30
0.0000000000
10
83.9501155719
20
106.7378274153
30
0.0000000000
10
84.1183664497
20
106.6719446669
30
0.0000000000
10
84.2685480424
20
106.6314821331
30
0.0000000000
10
84.3787238144
20
106.6112022637
30
0.0000000000
10
84.4368216287
20
106.6026546927
30
0.0000000000
10
84.4544275385
20
106.6002225503
30
0.0000000000
11
83.0826185681
21
108.1037980962
31
0.0000000000
11
83.0875263787
21
107.9823440766
31
0.0000000000
11
83.1317185519
21
107.7229485776
31
0.0000000000
11
83.2128426234
21
107.4921795484
31
0.0000000000
11
83.3243919530
21
107.2867654623
31
0.0000000000
11
83.4607416203
21
107.1075497153
31
0.0000000000
11
83.6154721833
21
106.9564700268
31
0.0000000000
11
83.7824876630
21
106.8339919401
31
0.0000000000
11
83.9561669127
21
106.7394115092
31
0.0000000000
11
84.1267944992
21
106.6725008712
31
0.0000000000
11
84.2809511620
21
106.6306684996
31
0.0000000000
11
84.4016812620
21
106.6080202395
31
0.0000000000
11
84.4544275385
21
106.6002225503
31
0.0000000000
0
SPLINE
5
3F6
100
AcDbEntity
8
0
100
AcDbSpline
62
7
6
CONTINUOUS
70
0
71
3
72
10
73
6
74
4
42
0.0000001000
43
0.0000001000
44
0.0000000001
40
0.0000000000
40
0.0000000000
40
0.0000000000
40
0.0000000000
40
0.1891978100
40
0.8109855747
40
1.0000000000
40
1.0000000000
40
1.0000000000
40
1.0000000000
10
137.5261098639
20
106.5910190620
30
0.0000000000
10
137.5298218291
20
106.5916945692
30
0.0000000000
10
137.5457442936
20
106.5945278953
30
0.0000000000
10
137.5654351004
20
106.5976898730
30
0.0000000000
10
137.5814414454
20
106.5999778677
30
0.0000000000
10
137.5851749398
20
106.6004961562
30
0.0000000000
11
137.5261098639
21
106.5910190620
31
0.0000000000
11
137.5372535804
21
106.5930019223
31
0.0000000000
11
137.5739808664
21
106.5988961265
31
0.0000000000
11
137.5851749398
21
106.6004961562
31
0.0000000000
0
SPLINE
5
3F7
100
AcDbEntity
8
0
100
AcDbSpline
62
7
6
CONTINUOUS
70
0
71
3
72
8
73
4
74
2
42
0.0000001000
43
0.0000001000
44
0.0000000001
40
0.0000000000
40
0.0000000000
40
0.0000000000
40
0.0000000000
40
1.0000000000
40
1.0000000000
40
1.0000000000
40
1.0000000000
10
137.5836135747
20
106.6002784811
30
0.0000000000
10
137.5998701475
20
106.6025266205
30
0.0000000000
10
137.6161086022
20
106.6049068764
30
0.0000000000
10
137.6323227926
20
106.6074475040
30
0.0000000000
11
137.5836135747
21
106.6002784811
31
0.0000000000
11
137.6323227926
21
106.6074475040
31
0.0000000000
0
SPLINE
5
3F8
100
AcDbEntity
8
0
100
AcDbSpline
62
7
6
CONTINUOUS
70
0
71
3
72
19
73
15
74
13
42
0.0000001000
43
0.0000001000
44
0.0000000001
40
0.0000000000
40
0.0000000000
40
0.0000000000
40
0.0000000000
40
0.0512342569
40
0.1174780431
40
0.1940807159
40
0.2768950385
40
0.3639562511
40
0.4548525414
40
0.5495378162
40
0.6479453689
40
0.7499536856
40
0.8555467570
40
0.9646974020
40
1.0000000000
40
1.0000000000
40
1.0000000000
40
1.0000000000
10
137.6323227926
20
106.6074475040
30
0.0000000000
10
137.6690907631
20
106.6132087367
30
0.0000000000
10
137.7531121107
20
106.6283099251
30
0.0000000000
10
137.8898938220
20
106.6631527501
30
0.0000000000
10
138.0442642741
20
106.7191964889
30
0.0000000000
10
138.2049029345
20
106.7991808548
30
0.0000000000
10
138.3632914642
20
106.9039599222
30
0.0000000000
10
138.5134879900
20
107.0339010043
30
0.0000000000
10
138.6504011878
20
107.1890508316
30
0.0000000000
10
138.7687915712
20
107.3686080413
30
0.0000000000
10
138.8632876634
20
107.5706828141
30
0.0000000000
10
138.9285873439
20
107.7922464454
30
0.0000000000
10
138.9523486306
20
107.9730337073
30
0.0000000000
10
138.9550343671
20
108.0781196387
30
0.0000000000
10
138.9550329682
20
108.1037996664
30
0.0000000000
11
137.6323227926
21
106.6074475040
31
0.0000000000
11
137.7421438476
21
106.6275196951
31
0.0000000000
11
137.8819577685
21
106.6634073908
31
0.0000000000
11
138.0388243706
21
106.7204569842
31
0.0000000000
11
138.2003445000
21
106.8009232440
31
0.0000000000
11
138.3585559515
21
106.9056046654
31
0.0000000000
11
138.5083383883
21
107.0351993478
31
0.0000000000
11
138.6448494689
21
107.1899022746
31
0.0000000000
11
138.7628830211
21
107.3689247178
31
0.0000000000
11
138.8570356239
21
107.5702769449
31
0.0000000000
11
138.9220840448
21
107.7909796443
31
0.0000000000
11
138.9530621995
21
108.0267946838
31
0.0000000000
11
138.9550329682
21
108.1037996664
31
0.0000000000
0
ENDSEC
0
SECTION
2
OBJECTS
0
DICTIONARY
5
3F9
100
AcDbDictionary
3
ACAD_GROUP
350
3FA
3
ACAD_MLINESTYLE
350
3FB
0
DICTIONARY
5
3FA
102
{ACAD_REACTORS
330
3F9
102
}
100
AcDbDictionary
0
DICTIONARY
5
3FB
102
{ACAD_REACTORS
330
3F9
102
}
100
AcDbDictionary
3
STANDARD
350
3FC
0
MLINESTYLE
5
3FC
102
{ACAD_REACTORS
330
3FB
102
}
100
AcDbMlineStyle
2
STANDARD
70
0
3

62
256
51
90.0
52
90.0
71
2
49
0.5
62
256
6
BYLAYER
49
-0.5
62
256
6
BYLAYER
0
ENDSEC
0
EOF
