999
DXF file: C:\Aktuell-Internet\CAD-Daten\2rm-m10.dxf
999
Pro/ENGINEER 2001400 by Parametric Technology Corporation
0
SECTION
2
HEADER
9
$ACADVER
1
AC1014
9
$EXTMAX
10
420.0000000000
20
297.0000000000
9
$EXTMIN
10
0.0000000000
20
0.0000000000
9
$LIMMIN
10
0.0000000000
20
0.0000000000
9
$LIMMAX
10
420.0000000000
20
297.0000000000
9
$VIEWCTR
10
210.0000000000
20
148.5000000000
9
$VIEWSIZE
40
297.0000000000
9
$CLAYER
8
0
9
$LTSCALE
40
23.1000000000
9
$CELTYPE
6
BYLAYER
9
$DIMSCALE
40
1
9
$DIMASZ
40
3.5000000000
9
$DIMEXO
40
2.6250000000
9
$DIMDLI
40
15.9600000000
9
$DIMEXE
40
7.5600000000
9
$DIMCEN
40
3.7800000000
9
$DIMLFAC
40
1.0000000000
9
$DIMTXT
40
3.5000000000
9
$DIMTOL
70
1
9
$DIMTFAC
40
0.6000000000
9
$DIMTP
40
0.0050000000
9
$DIMTM
40
0.0050000000
9
$HANDSEED
5
4AD
0
ENDSEC
0
SECTION
2
CLASSES
0
ENDSEC
0
SECTION
2
TABLES
0
TABLE
2
VPORT
5
8
100
AcDbSymbolTable
70
2
0
VPORT
5
1F4
100
AcDbSymbolTableRecord
100
AcDbViewportTableRecord
2
*ACTIVE
70
0
10
0.0
20
0.0
11
1.0
21
1.0
12
210.0000000000
22
148.5000000000
13
0.0
23
0.0
14
1.0
24
1.0
15
0.0
25
0.0
16
0.0
26
0.0
36
1.0
17
0.0
27
0.0
37
0.0
40
297.0000000000
41
1.4141414141
42
50.0
43
0.0
44
0.0
50
0.0
51
0.0
71
0
72
100
73
1
74
1
75
0
76
0
77
0
78
0
0
ENDTAB
0
TABLE
2
LTYPE
5
5
100
AcDbSymbolTable
70
6
0
LTYPE
5
14
100
AcDbSymbolTableRecord
100
AcDbLinetypeTableRecord
2
BYBLOCK
70
0
3

72
65
73
0
40
0.0
0
LTYPE
5
15
100
AcDbSymbolTableRecord
100
AcDbLinetypeTableRecord
2
BYLAYER
70
0
3

72
65
73
0
40
0.0
0
LTYPE
5
16
100
AcDbSymbolTableRecord
100
AcDbLinetypeTableRecord
2
CONTINUOUS
70
64
3
Solid line
72
65
73
0
40
0
0
LTYPE
5
1F5
100
AcDbSymbolTableRecord
100
AcDbLinetypeTableRecord
2
CENTER
70
64
3
____ _ ____ _ ____ _ ____ _ ____ _ ____ _ ____
72
65
73
4
40
0.6
49
0.375
74
0
49
-0.075
74
0
49
0.075
74
0
49
-0.075
74
0
0
LTYPE
5
1F6
100
AcDbSymbolTableRecord
100
AcDbLinetypeTableRecord
2
HIDDEN
70
64
3
- - - - - - - - - - - - - - - - - - - -
72
65
73
2
40
0.2
49
0.1
74
0
49
-0.1
74
0
0
LTYPE
5
1F7
100
AcDbSymbolTableRecord
100
AcDbLinetypeTableRecord
2
PHANTOM
70
64
3
_____ _ _ _____ _ _ _____ _ _ _____
72
65
73
6
40
0.8
49
0.45
74
0
49
-0.05
74
0
49
0.1
74
0
49
-0.05
74
0
49
0.1
74
0
49
-0.05
74
0
0
LTYPE
5
1F8
100
AcDbSymbolTableRecord
100
AcDbLinetypeTableRecord
2
DOT
70
64
3
. . . . . . . . . . . . . . . . . . . .
72
65
73
2
40
0.2
49
0.1
74
0
49
-0.1
74
0
0
LTYPE
5
1F9
100
AcDbSymbolTableRecord
100
AcDbLinetypeTableRecord
2
DASHED
70
64
3
- - - - - - - - - - - - - - - - - - - -
72
65
73
2
40
0.2
49
0.1
74
0
49
-0.1
74
0
0
ENDTAB
0
TABLE
2
LAYER
5
2
100
AcDbSymbolTable
70
36
0
LAYER
5
10
100
AcDbSymbolTableRecord
100
AcDbLayerTableRecord
2
0
70
0
62
7
6
CONTINUOUS
0
LAYER
5
1FA
100
AcDbSymbolTableRecord
100
AcDbLayerTableRecord
2
DEFAULT_1
70
0
62
7
6
CENTER
0
LAYER
5
1FB
100
AcDbSymbolTableRecord
100
AcDbLayerTableRecord
2
DEFAULT_2
70
0
62
8
6
HIDDEN
0
LAYER
5
1FC
100
AcDbSymbolTableRecord
100
AcDbLayerTableRecord
2
DEFAULT_3
70
0
62
7
6
PHANTOM
0
ENDTAB
0
TABLE
2
STYLE
5
3
100
AcDbSymbolTable
70
1
0
STYLE
5
11
100
AcDbSymbolTableRecord
100
AcDbTextStyleTableRecord
2
STANDARD
70
0
40
0.0
41
1.0
50
0.0
71
0
42
0.0
3
txt
4

0
STYLE
5
1FD
100
AcDbSymbolTableRecord
100
AcDbTextStyleTableRecord
2
TEXTSTYLE_0
70
0
40
0.0
41
0.80
50
0.0
71
0
42
0.2
3
txt
4

0
ENDTAB
0
TABLE
2
VIEW
5
6
100
AcDbSymbolTable
70
0
0
ENDTAB
0
TABLE
2
UCS
5
7
100
AcDbSymbolTable
70
0
0
ENDTAB
0
TABLE
2
APPID
5
9
100
AcDbSymbolTable
70
1
0
APPID
5
1FE
100
AcDbSymbolTableRecord
100
AcDbRegAppTableRecord
2
ACAD
70
0
0
ENDTAB
0
TABLE
2
DIMSTYLE
5
A
100
AcDbSymbolTable
70
1
0
DIMSTYLE
105
1FF
100
AcDbSymbolTableRecord
100
AcDbDimStyleTableRecord
2
STANDARD
70
0
3

4

5

6

7

40
1.0
41
0.18
42
0.0625
43
0.38
44
0.18
45
0.0
46
0.0
47
0.0050000000
48
0.0050000000
140
3.5000000000
141
0.09
142
0.0
143
25.4
144
1.0000000000
145
0.0
146
0.6000000000
147
0.09
71
1
72
0
73
1
74
1
75
0
76
0
77
0
78
0
170
0
171
2
172
0
173
0
174
0
175
0
176
0
177
0
178
0
270
2
271
3
272
4
273
2
274
2
340
11
275
0
280
0
281
0
282
0
283
1
284
0
285
0
286
0
287
3
288
0
0
ENDTAB
0
TABLE
2
BLOCK_RECORD
5
1
100
AcDbSymbolTable
70
0
0
BLOCK_RECORD
5
1B
100
AcDbSymbolTableRecord
100
AcDbBlockTableRecord
2
*MODEL_SPACE
0
BLOCK_RECORD
5
1C
100
AcDbSymbolTableRecord
100
AcDbBlockTableRecord
2
*PAPER_SPACE
0
ENDTAB
0
ENDSEC
0
SECTION
2
BLOCKS
0
BLOCK
5
1E
100
AcDbEntity
8
0
100
AcDbBlockBegin
2
*MODEL_SPACE
70
0
10
0.0
20
0.0
30
0.0
3
*MODEL_SPACE
1

0
ENDBLK
5
1F
100
AcDbEntity
8
0
100
AcDbBlockEnd
0
BLOCK
5
20
100
AcDbEntity
8
0
100
AcDbBlockBegin
2
*PAPER_SPACE
70
0
10
0.0
20
0.0
30
0.0
3
*PAPER_SPACE
1

0
ENDBLK
5
21
100
AcDbEntity
8
0
100
AcDbBlockEnd
0
ENDSEC
0
SECTION
2
ENTITIES
0
TEXT
5
200
100
AcDbEntity
8
0
100
AcDbText
62
2
6
CONTINUOUS
10
95.4791244950
20
113.4878833017
7
TEXTSTYLE_0
40
3.0000000000
1
RUD
72
5
11
102.9076959235
21
113.4878833017
100
AcDbText
0
TEXT
5
201
100
AcDbEntity
8
0
100
AcDbText
62
2
6
CONTINUOUS
10
90.7457169428
20
108.4529360401
7
TEXTSTYLE_0
40
3.0000000000
1
RM M10
72
5
11
104.6742883714
21
108.4529360401
100
AcDbText
0
TEXT
5
202
100
AcDbEntity
8
0
100
AcDbText
62
2
6
CONTINUOUS
10
299.3709298822
20
204.2370458711
7
TEXTSTYLE_0
40
3.0000000000
1
RM M10
50
90.0000000000
72
5
11
299.3709298822
21
218.1656172997
100
AcDbText
0
TEXT
5
203
100
AcDbEntity
8
0
100
AcDbText
62
2
6
CONTINUOUS
10
294.3143560991
20
204.0367855232
7
TEXTSTYLE_0
40
3.0000000000
1
RUD
50
90.0000000000
72
5
11
294.3143560991
21
211.4653569518
100
AcDbText
0
LINE
5
204
100
AcDbEntity
8
0
100
AcDbLine
62
7
6
CONTINUOUS
10
0.0000000000
20
0.0000000000
11
0.0000000000
21
297.0000000000
0
LINE
5
205
100
AcDbEntity
8
0
100
AcDbLine
62
7
6
CONTINUOUS
10
0.0000000000
20
0.0000000000
11
420.0000000000
21
0.0000000000
0
LINE
5
206
100
AcDbEntity
8
0
100
AcDbLine
62
7
6
CONTINUOUS
10
0.0000000000
20
297.0000000000
11
420.0000000000
21
297.0000000000
0
LINE
5
207
100
AcDbEntity
8
0
100
AcDbLine
62
7
6
CONTINUOUS
10
420.0000000000
20
0.0000000000
11
420.0000000000
21
297.0000000000
0
LINE
5
208
100
AcDbEntity
8
0
100
AcDbLine
62
7
6
CONTINUOUS
10
99.0188211092
20
190.4486286517
11
98.5188211092
21
190.9486286517
0
LINE
5
209
100
AcDbEntity
8
0
100
AcDbLine
62
7
6
CONTINUOUS
10
88.0644141385
20
213.2139955164
11
94.2464081820
21
228.1386493787
0
LINE
5
20A
100
AcDbEntity
8
0
100
AcDbLine
62
7
6
CONTINUOUS
10
99.0188211092
20
190.4486286517
11
123.0188211092
21
190.4486286517
0
LINE
5
20B
100
AcDbEntity
8
0
100
AcDbLine
62
7
6
CONTINUOUS
10
98.5188211092
20
190.9486286517
11
123.5188211092
21
190.9486286517
0
LINE
5
20C
100
AcDbEntity
8
DEFAULT_2
100
AcDbLine
62
8
6
HIDDEN
10
106.0188211092
20
191.4486286517
11
116.0188211092
21
191.4486286517
0
LINE
5
20D
100
AcDbEntity
8
0
100
AcDbLine
62
7
6
CONTINUOUS
10
94.3077326229
20
196.6105576276
11
88.0644141385
21
211.6832617870
0
LINE
5
20E
100
AcDbEntity
8
0
100
AcDbLine
62
7
6
CONTINUOUS
10
94.3566999351
20
225.1067085991
11
94.2590171530
21
224.8765823858
0
LINE
5
20F
100
AcDbEntity
8
0
100
AcDbLine
62
7
6
CONTINUOUS
10
94.0310907856
20
224.3396215139
11
93.8845666124
21
223.9944321938
0
LINE
5
210
100
AcDbEntity
8
0
100
AcDbLine
62
7
6
CONTINUOUS
10
93.3961527018
20
222.8438011270
11
93.2496285286
21
222.4986118070
0
LINE
5
211
100
AcDbEntity
8
0
100
AcDbLine
62
7
6
CONTINUOUS
10
92.3379225932
20
220.3507672221
11
92.1913984200
21
220.0055779020
0
LINE
5
212
100
AcDbEntity
8
0
100
AcDbLine
62
7
6
CONTINUOUS
10
91.7029845094
20
218.8549468352
11
91.5564602897
21
218.5097574054
0
LINE
5
213
100
AcDbEntity
8
0
100
AcDbLine
62
7
6
CONTINUOUS
10
91.1982901041
20
217.6659613264
11
90.8075589756
21
216.7454564729
0
LINE
5
214
100
AcDbEntity
8
0
100
AcDbLine
62
7
6
CONTINUOUS
10
91.1500568491
20
216.8716648453
11
91.4593856436
21
217.6003978177
0
LINE
5
215
100
AcDbEntity
8
0
100
AcDbLine
62
7
6
CONTINUOUS
10
94.9266380398
20
226.3132654208
11
94.7799922394
21
226.1039227756
0
LINE
5
216
100
AcDbEntity
8
0
100
AcDbLine
62
7
6
CONTINUOUS
10
95.0248073308
20
226.0000049347
11
95.1551725434
21
226.1709929184
0
LINE
5
217
100
AcDbEntity
8
0
100
AcDbLine
62
7
6
CONTINUOUS
10
100.1595688243
20
229.3140127846
11
99.9787728301
21
229.1604939815
0
LINE
5
218
100
AcDbEntity
8
0
100
AcDbLine
62
7
6
CONTINUOUS
10
103.6236705633
20
231.3140128562
11
103.4793328859
21
231.2306794593
0
LINE
5
219
100
AcDbEntity
8
0
100
AcDbLine
62
7
6
CONTINUOUS
10
101.9204871591
20
230.3306794593
11
100.9389917290
21
229.7640128085
0
LINE
5
21A
100
AcDbEntity
8
0
100
AcDbLine
62
7
6
CONTINUOUS
10
100.2750388919
20
229.3806794593
11
100.1595688243
21
229.3140127846
0
LINE
5
21B
100
AcDbEntity
8
0
100
AcDbLine
62
7
6
CONTINUOUS
10
100.2370843044
20
229.1130854316
11
100.3525543307
21
229.1797520824
0
LINE
5
21C
100
AcDbEntity
8
0
100
AcDbLine
62
7
6
CONTINUOUS
10
101.1897122898
20
229.6630854555
11
102.0268701251
21
230.1464187570
0
LINE
5
21D
100
AcDbEntity
8
0
100
AcDbLine
62
7
6
CONTINUOUS
10
99.9317311488
20
228.6419725815
11
100.0760687153
21
228.7253059143
0
LINE
5
21E
100
AcDbEntity
8
0
100
AcDbLine
62
7
6
CONTINUOUS
10
95.1549292889
20
226.4426862681
11
94.9266380398
21
226.3132654208
0
LINE
5
21F
100
AcDbEntity
8
0
100
AcDbLine
62
7
6
CONTINUOUS
10
95.3288003822
20
229.2210415789
11
110.2534542445
21
235.4030356224
0
LINE
5
220
100
AcDbEntity
8
0
100
AcDbLine
62
7
6
CONTINUOUS
10
102.9232590998
20
230.8604939219
11
102.7287774258
21
230.7973460623
0
LINE
5
221
100
AcDbEntity
8
0
100
AcDbLine
62
7
6
CONTINUOUS
10
92.1937094278
20
217.4244909116
11
92.1938310551
21
217.2886442367
0
LINE
5
222
100
AcDbEntity
8
0
100
AcDbLine
62
7
6
CONTINUOUS
10
94.9923677823
20
225.7874489368
11
95.0248073308
21
226.0000049347
0
LINE
5
223
100
AcDbEntity
8
0
100
AcDbLine
62
7
6
CONTINUOUS
10
94.7799922394
20
226.1039227756
11
94.7312724756
21
225.8530129941
0
LINE
5
224
100
AcDbEntity
8
0
100
AcDbLine
62
7
6
CONTINUOUS
10
92.1938310551
20
217.2886442367
11
91.8845022605
21
216.5599112643
0
LINE
5
225
100
AcDbEntity
8
0
100
AcDbLine
62
7
6
CONTINUOUS
10
92.1782803702
20
216.4352098552
11
92.4550482451
21
217.0872341081
0
LINE
5
226
100
AcDbEntity
8
0
100
AcDbLine
62
7
6
CONTINUOUS
10
93.1088211092
20
215.7686286517
11
93.2065038913
21
215.9987548650
0
LINE
5
227
100
AcDbEntity
8
0
100
AcDbLine
62
7
6
CONTINUOUS
10
93.6135154680
20
216.9576140508
11
93.7274787448
21
217.2260947062
0
LINE
5
228
100
AcDbEntity
8
0
100
AcDbLine
62
7
6
CONTINUOUS
10
93.8577224233
20
217.5329295842
11
93.9554052520
21
217.7630559073
0
LINE
5
229
100
AcDbEntity
8
0
100
AcDbLine
62
7
6
CONTINUOUS
10
94.1833317126
20
218.3000169987
11
94.3135753910
21
218.6068518767
0
LINE
5
22A
100
AcDbEntity
8
0
100
AcDbLine
62
7
6
CONTINUOUS
10
94.5415019447
20
219.1438131875
11
94.6391847268
21
219.3739394009
0
LINE
5
22B
100
AcDbEntity
8
0
100
AcDbLine
62
7
6
CONTINUOUS
10
95.5508906623
20
221.5217839858
11
95.6485734444
21
221.7519101991
0
LINE
5
22C
100
AcDbEntity
8
0
100
AcDbLine
62
7
6
CONTINUOUS
10
95.8764999981
20
222.2888715099
11
96.0067435834
21
222.5957061685
0
LINE
5
22D
100
AcDbEntity
8
0
100
AcDbLine
62
7
6
CONTINUOUS
10
96.2346701371
20
223.1326674793
11
96.3323529192
21
223.3627936927
0
LINE
5
22E
100
AcDbEntity
8
0
100
AcDbLine
62
7
6
CONTINUOUS
10
96.5602792867
20
223.8997545646
11
96.6579620688
21
224.1298807779
0
LINE
5
22F
100
AcDbEntity
8
0
100
AcDbLine
62
7
6
CONTINUOUS
10
99.9787728301
20
229.1604939815
11
99.9058559696
21
229.0201230379
0
LINE
5
230
100
AcDbEntity
8
0
100
AcDbLine
62
7
6
CONTINUOUS
10
96.9346085684
20
224.9177523110
11
97.0812543731
21
225.1270949544
0
LINE
5
231
100
AcDbEntity
8
0
100
AcDbLine
62
7
6
CONTINUOUS
10
96.8364392474
20
225.2310128099
11
96.7060736622
21
225.0600239484
0
LINE
5
232
100
AcDbEntity
8
0
100
AcDbLine
62
7
6
CONTINUOUS
10
91.3286554563
20
217.8369496392
11
91.1982901041
21
217.6659613264
0
LINE
5
233
100
AcDbEntity
8
0
100
AcDbLine
62
7
6
CONTINUOUS
10
101.7458961079
20
229.0997468241
11
101.8400894584
21
229.2032655677
0
LINE
5
234
100
AcDbEntity
8
0
100
AcDbLine
62
7
6
CONTINUOUS
10
100.1140233234
20
228.9928999539
11
100.2370843044
21
229.1130854316
0
LINE
5
235
100
AcDbEntity
8
0
100
AcDbLine
62
7
6
CONTINUOUS
10
102.7120996380
20
230.4929000135
11
102.8351603918
21
230.6130853601
0
LINE
5
236
100
AcDbEntity
8
0
100
AcDbLine
62
7
6
CONTINUOUS
10
101.7337064924
20
229.3875262699
11
101.6106455734
21
229.2673408279
0
LINE
5
237
100
AcDbEntity
8
0
100
AcDbLine
62
7
6
CONTINUOUS
10
102.7287774258
20
230.7973460623
11
102.5768489382
21
230.6604939219
0
LINE
5
238
100
AcDbEntity
8
0
100
AcDbLine
62
7
6
CONTINUOUS
10
105.7614725386
20
231.8112304555
11
105.6171351915
21
231.7278972493
0
LINE
5
239
100
AcDbEntity
8
0
100
AcDbLine
62
7
6
CONTINUOUS
10
105.3573275704
20
231.5778972493
11
105.1841224896
21
231.4778972493
0
LINE
5
23A
100
AcDbEntity
8
0
100
AcDbLine
62
7
6
CONTINUOUS
10
104.4913021666
20
231.0778972493
11
104.3180970859
21
230.9778972493
0
LINE
5
23B
100
AcDbEntity
8
0
100
AcDbLine
62
7
6
CONTINUOUS
10
101.9069115732
20
229.4875262699
11
101.7337064924
21
229.3875262699
0
LINE
5
23C
100
AcDbEntity
8
0
100
AcDbLine
62
7
6
CONTINUOUS
10
105.2905054557
20
231.2936365470
11
105.4637105364
21
231.3936365470
0
LINE
5
23D
100
AcDbEntity
8
0
100
AcDbLine
62
7
6
CONTINUOUS
10
101.8400894584
20
229.2032655677
11
102.0132945392
21
229.3032655677
0
LINE
5
23E
100
AcDbEntity
8
0
100
AcDbLine
62
7
6
CONTINUOUS
10
101.4921832120
20
228.8058570536
11
101.6942557787
21
228.9225237043
0
LINE
5
23F
100
AcDbEntity
8
0
100
AcDbLine
62
7
6
CONTINUOUS
10
101.8568775788
20
228.5741876902
11
101.6836725807
21
228.4741877379
0
LINE
5
240
100
AcDbEntity
8
0
100
AcDbLine
62
7
6
CONTINUOUS
10
105.9317956317
20
230.5828893797
11
105.8163256880
21
230.5162227766
0
LINE
5
241
100
AcDbEntity
8
0
100
AcDbLine
62
7
6
CONTINUOUS
10
102.4388264481
20
228.5662226813
11
102.2656213673
21
228.4662226813
0
LINE
5
242
100
AcDbEntity
8
0
100
AcDbLine
62
7
6
CONTINUOUS
10
101.6016686128
20
228.0828893797
11
100.7933782428
21
227.6162227170
0
LINE
5
243
100
AcDbEntity
8
0
100
AcDbLine
62
7
6
CONTINUOUS
10
100.6688211092
20
227.2986286517
11
101.7080515938
21
227.8986286517
0
LINE
5
244
100
AcDbEntity
8
0
100
AcDbLine
62
7
6
CONTINUOUS
10
102.3720043483
20
228.2819619532
11
102.5452094290
21
228.3819619532
0
LINE
5
245
100
AcDbEntity
8
0
100
AcDbLine
62
7
6
CONTINUOUS
10
104.4793328859
20
229.4986286517
11
104.6236705633
21
229.5819620486
0
LINE
5
246
100
AcDbEntity
8
0
100
AcDbLine
62
7
6
CONTINUOUS
10
105.1144180719
20
229.8652952548
11
105.2876231526
21
229.9652952548
0
LINE
5
247
100
AcDbEntity
8
0
100
AcDbLine
62
7
6
CONTINUOUS
10
105.8649735319
20
230.2986286517
11
106.0381786127
21
230.3986286517
0
LINE
5
248
100
AcDbEntity
8
0
100
AcDbLine
62
7
6
CONTINUOUS
10
105.7480074281
20
230.0345534739
11
105.6036697507
21
229.9512200770
0
LINE
5
249
100
AcDbEntity
8
0
100
AcDbLine
62
7
6
CONTINUOUS
10
106.2934977610
20
229.9564029147
11
106.1202926802
21
229.8564029147
0
LINE
5
24A
100
AcDbEntity
8
0
100
AcDbLine
62
7
6
CONTINUOUS
10
96.7063169338
20
224.7883305914
11
96.9346085684
21
224.9177523110
0
LINE
5
24B
100
AcDbEntity
8
0
100
AcDbLine
62
7
6
CONTINUOUS
10
95.1551725434
20
226.1709929184
11
95.3019399710
21
226.2444888887
0
LINE
5
24C
100
AcDbEntity
8
0
100
AcDbLine
62
7
6
CONTINUOUS
10
96.7060736622
20
225.0600239484
11
96.5593062346
21
224.9865279781
0
LINE
5
24D
100
AcDbEntity
8
0
100
AcDbLine
62
7
6
CONTINUOUS
10
109.3273299317
20
231.9462995135
11
109.1882039817
21
231.8870969887
0
LINE
5
24E
100
AcDbEntity
8
0
100
AcDbLine
62
7
6
CONTINUOUS
10
100.4695205658
20
229.4438273188
11
100.2750388919
21
229.3806794593
0
LINE
5
24F
100
AcDbEntity
8
0
100
AcDbLine
62
7
6
CONTINUOUS
10
103.5342957500
20
229.0021473984
11
103.7287774258
21
229.0652952548
0
LINE
5
250
100
AcDbEntity
8
0
100
AcDbLine
62
7
6
CONTINUOUS
10
126.8060300630
20
195.9932410600
11
126.0783441930
21
195.9932410600
0
LINE
5
251
100
AcDbEntity
8
0
100
AcDbLine
62
7
6
CONTINUOUS
10
95.9592980254
20
195.9932410600
11
95.2316121554
21
195.9932410600
0
LINE
5
252
100
AcDbEntity
8
0
100
AcDbLine
62
7
6
CONTINUOUS
10
92.4548050140
20
217.3589275127
11
92.4220008166
21
217.5539120881
0
LINE
5
253
100
AcDbEntity
8
0
100
AcDbLine
62
7
6
CONTINUOUS
10
96.8688784233
20
225.4435679299
11
96.8364392474
21
225.2310128099
0
LINE
5
254
100
AcDbEntity
8
0
100
AcDbLine
62
7
6
CONTINUOUS
10
97.0812543731
20
225.1270949544
11
97.1299741326
21
225.3780047378
0
LINE
5
255
100
AcDbEntity
8
0
100
AcDbLine
62
7
6
CONTINUOUS
10
100.0699739694
20
228.8691956730
11
100.1140233234
21
228.9928999539
0
LINE
5
256
100
AcDbEntity
8
0
100
AcDbLine
62
7
6
CONTINUOUS
10
101.6106455734
20
229.2673408279
11
101.5301378408
21
229.0734511050
0
LINE
5
257
100
AcDbEntity
8
0
100
AcDbLine
62
7
6
CONTINUOUS
10
102.5330199638
20
228.6697415202
11
102.4388264481
21
228.5662226813
0
LINE
5
258
100
AcDbEntity
8
0
100
AcDbLine
62
7
6
CONTINUOUS
10
105.1841224896
20
231.4778972493
11
105.0899291391
21
231.3743785057
0
LINE
5
259
100
AcDbEntity
8
0
100
AcDbLine
62
7
6
CONTINUOUS
10
106.0259889822
20
230.6864081233
11
105.9317956317
21
230.5828893797
0
LINE
5
25A
100
AcDbEntity
8
0
100
AcDbLine
62
7
6
CONTINUOUS
10
106.0381786127
20
230.3986286517
11
106.1323719613
21
230.5021473984
0
LINE
5
25B
100
AcDbEntity
8
0
100
AcDbLine
62
7
6
CONTINUOUS
10
106.3876911115
20
230.0599216582
11
106.2934977610
21
229.9564029147
0
LINE
5
25C
100
AcDbEntity
8
0
100
AcDbLine
62
7
6
CONTINUOUS
10
102.5452094290
20
228.3819619532
11
102.6682705114
21
228.5021474938
0
LINE
5
25D
100
AcDbEntity
8
0
100
AcDbLine
62
7
6
CONTINUOUS
10
103.7454555291
20
229.3697415202
11
103.6223944449
21
229.2495559828
0
LINE
5
25E
100
AcDbEntity
8
0
100
AcDbLine
62
7
6
CONTINUOUS
10
91.4593856436
20
217.6003978177
11
91.5571900530
21
217.6946773562
0
LINE
5
25F
100
AcDbEntity
8
0
100
AcDbLine
62
7
6
CONTINUOUS
10
103.7287774258
20
229.0652952548
11
103.8807059115
21
229.2021473984
0
LINE
5
260
100
AcDbEntity
8
0
100
AcDbLine
62
7
6
CONTINUOUS
10
109.3737053368
20
231.6502868893
11
109.5592065592
21
231.7686919390
0
LINE
5
261
100
AcDbEntity
8
0
100
AcDbLine
62
7
6
CONTINUOUS
10
106.2053990531
20
229.7089943529
11
106.3786041338
21
229.8089943529
0
LINE
5
262
100
AcDbEntity
8
0
100
AcDbLine
62
7
6
CONTINUOUS
10
111.2750933643
20
230.7030463671
11
111.0895920092
21
230.6438438423
0
LINE
5
263
100
AcDbEntity
8
0
100
AcDbLine
62
7
6
CONTINUOUS
10
113.5011082990
20
230.7030463671
11
113.3156072092
21
230.6438438423
0
LINE
5
264
100
AcDbEntity
8
0
100
AcDbLine
62
7
6
CONTINUOUS
10
99.9058559696
20
229.0201230379
11
99.8754922903
21
228.8060478104
0
LINE
5
265
100
AcDbEntity
8
0
100
AcDbLine
62
7
6
CONTINUOUS
10
100.8388136027
20
228.8708596192
11
100.5624381283
21
227.4828893797
0
LINE
5
266
100
AcDbEntity
8
0
100
AcDbLine
62
7
6
CONTINUOUS
10
100.7933782428
20
227.6162227170
11
101.0469809771
21
228.8436365470
0
LINE
5
267
100
AcDbEntity
8
0
100
AcDbLine
62
7
6
CONTINUOUS
10
101.6942557787
20
228.9225237043
11
101.7458961079
21
229.0997468241
0
LINE
5
268
100
AcDbEntity
8
0
100
AcDbLine
62
7
6
CONTINUOUS
10
102.6680502840
20
230.3691957326
11
102.7120996380
21
230.4929000135
0
LINE
5
269
100
AcDbEntity
8
0
100
AcDbLine
62
7
6
CONTINUOUS
10
102.5770693177
20
228.7934458011
11
102.5330199638
21
228.6697415202
0
LINE
5
26A
100
AcDbEntity
8
0
100
AcDbLine
62
7
6
CONTINUOUS
10
102.5768489382
20
230.6604939219
11
102.4963412056
21
230.4666041990
0
LINE
5
26B
100
AcDbEntity
8
0
100
AcDbLine
62
7
6
CONTINUOUS
10
102.6682705114
20
228.5021474938
11
102.7487782384
21
228.6960372264
0
LINE
5
26C
100
AcDbEntity
8
0
100
AcDbLine
62
7
6
CONTINUOUS
10
103.8807059115
20
229.2021473984
11
103.9612138037
21
229.3960372264
0
LINE
5
26D
100
AcDbEntity
8
0
100
AcDbLine
62
7
6
CONTINUOUS
10
105.2175886984
20
231.1532656631
11
105.2905054557
21
231.2936365470
0
LINE
5
26E
100
AcDbEntity
8
0
100
AcDbLine
62
7
6
CONTINUOUS
10
106.4727974843
20
229.9125130964
11
106.5381237619
21
229.9993654276
0
LINE
5
26F
100
AcDbEntity
8
0
100
AcDbLine
62
7
6
CONTINUOUS
10
109.4200806092
20
232.0647045633
11
109.3273299317
21
231.9462995135
0
LINE
5
270
100
AcDbEntity
8
0
100
AcDbLine
62
7
6
CONTINUOUS
10
106.3786041338
20
229.8089943529
11
106.4727974843
21
229.9125130964
0
LINE
5
271
100
AcDbEntity
8
0
100
AcDbLine
62
7
6
CONTINUOUS
10
111.4142193143
20
230.8214514583
11
111.2750933643
21
230.7030463671
0
LINE
5
272
100
AcDbEntity
8
0
100
AcDbLine
62
7
6
CONTINUOUS
10
111.3214685041
20
230.3478311817
11
111.5069698592
21
230.4662362470
0
LINE
5
273
100
AcDbEntity
8
0
100
AcDbLine
62
7
6
CONTINUOUS
10
113.5474839695
20
230.3478311817
11
113.7329850592
21
230.4662362470
0
LINE
5
274
100
AcDbEntity
8
0
100
AcDbLine
62
7
6
CONTINUOUS
10
92.1283443342
20
217.5427668223
11
92.1937094278
21
217.4244909116
0
LINE
5
275
100
AcDbEntity
8
0
100
AcDbLine
62
7
6
CONTINUOUS
10
98.5188211092
20
190.9486286517
11
98.5188211092
21
192.4932410600
0
LINE
5
276
100
AcDbEntity
8
0
100
AcDbLine
62
7
6
CONTINUOUS
10
102.4963412056
20
230.4666041990
11
102.4735684449
21
230.3060477777
0
LINE
5
277
100
AcDbEntity
8
0
100
AcDbLine
62
7
6
CONTINUOUS
10
103.7895048830
20
229.4934458011
11
103.7454555291
21
229.3697415202
0
LINE
5
278
100
AcDbEntity
8
0
100
AcDbLine
62
7
6
CONTINUOUS
10
105.0899291391
20
231.3743785057
11
105.0458797852
21
231.2506742248
0
LINE
5
279
100
AcDbEntity
8
0
100
AcDbLine
62
7
6
CONTINUOUS
10
106.0700386666
20
230.8101125949
11
106.0259889822
21
230.6864081233
0
LINE
5
27A
100
AcDbEntity
8
0
100
AcDbLine
62
7
6
CONTINUOUS
10
106.1323719613
20
230.5021473984
11
106.1688305033
21
230.5723329390
0
LINE
5
27B
100
AcDbEntity
8
0
100
AcDbLine
62
7
6
CONTINUOUS
10
109.5592065592
20
231.7686919390
11
109.6983325092
21
232.0055020384
0
LINE
5
27C
100
AcDbEntity
8
0
100
AcDbLine
62
7
6
CONTINUOUS
10
113.6402342490
20
230.8214514583
11
113.5011082990
21
230.7030463671
0
LINE
5
27D
100
AcDbEntity
8
0
100
AcDbLine
62
7
6
CONTINUOUS
10
91.5406663504
20
217.9280163737
11
91.3286554563
21
217.8369496392
0
LINE
5
27E
100
AcDbEntity
8
DEFAULT_2
100
AcDbLine
62
8
6
HIDDEN
10
116.0188211092
20
191.4486286517
11
117.0188211092
21
190.4486286517
0
LINE
5
27F
100
AcDbEntity
8
0
100
AcDbLine
62
7
6
CONTINUOUS
10
92.4220008166
20
217.5539120881
11
92.2749901346
21
217.7521094675
0
LINE
5
280
100
AcDbEntity
8
0
100
AcDbLine
62
7
6
CONTINUOUS
10
95.0414524278
20
225.6308186937
11
94.9923677823
21
225.7874489368
0
LINE
5
281
100
AcDbEntity
8
0
100
AcDbLine
62
7
6
CONTINUOUS
10
94.7312724756
20
225.8530129941
11
94.7967589636
21
225.5988898598
0
LINE
5
282
100
AcDbEntity
8
0
100
AcDbLine
62
7
6
CONTINUOUS
10
100.0760687153
20
228.7253059143
11
100.0699739694
21
228.8691956730
0
LINE
5
283
100
AcDbEntity
8
0
100
AcDbLine
62
7
6
CONTINUOUS
10
101.0469809771
20
228.8436365470
11
101.0408862520
21
228.9875263176
0
LINE
5
284
100
AcDbEntity
8
0
100
AcDbLine
62
7
6
CONTINUOUS
10
102.7487782384
20
228.6960372264
11
102.7502743985
21
228.8934458011
0
LINE
5
285
100
AcDbEntity
8
0
100
AcDbLine
62
7
6
CONTINUOUS
10
103.9612138037
20
229.3960372264
11
103.9839865570
21
229.5565936606
0
LINE
5
286
100
AcDbEntity
8
0
100
AcDbLine
62
7
6
CONTINUOUS
10
104.3896280082
20
229.9873356451
11
104.4275823892
21
230.2549295536
0
LINE
5
287
100
AcDbEntity
8
0
100
AcDbLine
62
7
6
CONTINUOUS
10
105.0458797852
20
231.2506742248
11
105.0231070244
21
231.0901178035
0
LINE
5
288
100
AcDbEntity
8
0
100
AcDbLine
62
7
6
CONTINUOUS
10
106.5381237619
20
229.9993654276
11
106.5821731158
21
230.1230697085
0
LINE
5
289
100
AcDbEntity
8
0
100
AcDbLine
62
7
6
CONTINUOUS
10
111.5069698592
20
230.4662362470
11
111.6924712143
21
230.7030463671
0
LINE
5
28A
100
AcDbEntity
8
0
100
AcDbLine
62
7
6
CONTINUOUS
10
113.7329850592
20
230.4662362470
11
113.9184861490
21
230.7030463671
0
LINE
5
28B
100
AcDbEntity
8
0
100
AcDbLine
62
7
6
CONTINUOUS
10
96.8197937778
20
225.6001981730
11
96.8688784233
21
225.4435679299
0
LINE
5
28C
100
AcDbEntity
8
0
100
AcDbLine
62
7
6
CONTINUOUS
10
97.1299741326
20
225.3780047378
11
97.0644872591
21
225.6321269996
0
LINE
5
28D
100
AcDbEntity
8
0
100
AcDbLine
62
7
6
CONTINUOUS
10
102.5709744951
20
228.9373355498
11
102.5770693177
21
228.7934458011
0
LINE
5
28E
100
AcDbEntity
8
0
100
AcDbLine
62
7
6
CONTINUOUS
10
102.6802397940
20
230.0814160882
11
102.6680502840
21
230.3691957326
0
LINE
5
28F
100
AcDbEntity
8
0
100
AcDbLine
62
7
6
CONTINUOUS
10
103.7773152526
20
229.7812252727
11
103.7895048830
21
229.4934458011
0
LINE
5
290
100
AcDbEntity
8
0
100
AcDbLine
62
7
6
CONTINUOUS
10
104.4503551202
20
230.4154860265
11
104.4913021666
21
231.0778972493
0
LINE
5
291
100
AcDbEntity
8
0
100
AcDbLine
62
7
6
CONTINUOUS
10
104.3180970859
20
230.9778972493
11
104.2619684489
21
230.2084484878
0
LINE
5
292
100
AcDbEntity
8
0
100
AcDbLine
62
7
6
CONTINUOUS
10
106.1688305033
20
230.5723329390
11
106.1840121198
21
230.6793704326
0
LINE
5
293
100
AcDbEntity
8
0
100
AcDbLine
62
7
6
CONTINUOUS
10
106.4104641877
20
230.2204782961
11
106.3876911115
21
230.0599216582
0
LINE
5
294
100
AcDbEntity
8
0
100
AcDbLine
62
7
6
CONTINUOUS
10
109.4664558817
20
232.2423121378
11
109.4200806092
21
232.0647045633
0
LINE
5
295
100
AcDbEntity
8
0
100
AcDbLine
62
7
6
CONTINUOUS
10
111.5069698592
20
230.9990590329
11
111.4142193143
21
230.8214514583
0
LINE
5
296
100
AcDbEntity
8
0
100
AcDbLine
62
7
6
CONTINUOUS
10
91.9977357275
20
217.6434718592
11
92.1283443342
21
217.5427668223
0
LINE
5
297
100
AcDbEntity
8
0
100
AcDbLine
62
7
6
CONTINUOUS
10
92.2749901346
20
217.7521094675
11
92.1443815279
21
217.8528145044
0
LINE
5
298
100
AcDbEntity
8
0
100
AcDbLine
62
7
6
CONTINUOUS
10
92.1913984200
20
220.0055779020
11
94.0036384727
21
218.5573524029
0
LINE
5
299
100
AcDbEntity
8
0
100
AcDbLine
62
7
6
CONTINUOUS
10
94.3135753910
20
218.6068518767
11
92.7298699939
21
219.9128053269
0
LINE
5
29A
100
AcDbEntity
8
0
100
AcDbLine
62
7
6
CONTINUOUS
10
94.2590171530
20
224.8765823858
11
94.5040754989
21
224.5009711951
0
LINE
5
29B
100
AcDbEntity
8
0
100
AcDbLine
62
7
6
CONTINUOUS
10
94.8957797823
20
224.3347025914
11
94.6507212993
21
224.7103138403
0
LINE
5
29C
100
AcDbEntity
8
0
100
AcDbLine
62
7
6
CONTINUOUS
10
94.7967589636
20
225.5988898598
11
94.8948066274
21
225.4214760486
0
LINE
5
29D
100
AcDbEntity
8
0
100
AcDbLine
62
7
6
CONTINUOUS
10
100.8114422843
20
229.0516015302
11
100.8388136027
21
228.8708596192
0
LINE
5
29E
100
AcDbEntity
8
0
100
AcDbLine
62
7
6
CONTINUOUS
10
105.2236833410
20
231.0093758448
11
105.2175886984
21
231.1532656631
0
LINE
5
29F
100
AcDbEntity
8
0
100
AcDbLine
62
7
6
CONTINUOUS
10
106.0639436787
20
230.9540022482
11
106.0700386666
21
230.8101125949
0
LINE
5
2A0
100
AcDbEntity
8
DEFAULT_2
100
AcDbLine
62
8
6
HIDDEN
10
106.0188211092
20
200.9921894143
11
106.0188211092
21
191.4486286517
0
LINE
5
2A1
100
AcDbEntity
8
0
100
AcDbLine
62
7
6
CONTINUOUS
10
109.6983325092
20
232.0055020384
11
109.7447077817
21
232.1831096130
0
LINE
5
2A2
100
AcDbEntity
8
0
100
AcDbLine
62
7
6
CONTINUOUS
10
111.6924712143
20
230.7030463671
11
111.7852217592
21
230.9398565080
0
LINE
5
2A3
100
AcDbEntity
8
0
100
AcDbLine
62
7
6
CONTINUOUS
10
113.7329850592
20
230.9990590329
11
113.6402342490
21
230.8214514583
0
LINE
5
2A4
100
AcDbEntity
8
0
100
AcDbLine
62
7
6
CONTINUOUS
10
90.8075589756
20
216.7454564729
11
93.1088211092
21
215.7686286517
0
LINE
5
2A5
100
AcDbEntity
8
0
100
AcDbLine
62
7
6
CONTINUOUS
10
93.2065038913
20
215.9987548650
11
92.1782803702
21
216.4352098552
0
LINE
5
2A6
100
AcDbEntity
8
0
100
AcDbLine
62
7
6
CONTINUOUS
10
91.8845022605
20
216.5599112643
11
91.1500568491
21
216.8716648453
0
LINE
5
2A7
100
AcDbEntity
8
0
100
AcDbLine
62
7
6
CONTINUOUS
10
95.2701090683
20
225.3527003361
11
95.0414524278
21
225.6308186937
0
LINE
5
2A8
100
AcDbEntity
8
0
100
AcDbLine
62
7
6
CONTINUOUS
10
97.0644872591
20
225.6321269996
11
96.9664395782
21
225.8095408182
0
LINE
5
2A9
100
AcDbEntity
8
0
100
AcDbLine
62
7
6
CONTINUOUS
10
99.8754922903
20
228.8060478104
11
99.9317311488
21
228.6419725815
0
LINE
5
2AA
100
AcDbEntity
8
0
100
AcDbLine
62
7
6
CONTINUOUS
10
101.0408862520
20
228.9875263176
11
100.9846473651
21
229.1516015302
0
LINE
5
2AB
100
AcDbEntity
8
0
100
AcDbLine
62
7
6
CONTINUOUS
10
102.7502743985
20
228.8934458011
11
102.7016263894
21
229.1110398307
0
LINE
5
2AC
100
AcDbEntity
8
0
100
AcDbLine
62
7
6
CONTINUOUS
10
102.4735684449
20
230.3060477777
11
102.5009398459
21
230.1253059143
0
LINE
5
2AD
100
AcDbEntity
8
0
100
AcDbLine
62
7
6
CONTINUOUS
10
103.9839865570
20
229.5565936606
11
103.9566153063
21
229.7373356451
0
LINE
5
2AE
100
AcDbEntity
8
0
100
AcDbLine
62
7
6
CONTINUOUS
10
106.5821731158
20
230.1230697085
11
106.5760781429
21
230.2669593360
0
LINE
5
2AF
100
AcDbEntity
8
0
100
AcDbLine
62
7
6
CONTINUOUS
10
108.0288211092
20
233.0711476517
11
108.0288211092
21
230.2886286517
0
LINE
5
2B0
100
AcDbEntity
8
0
100
AcDbLine
62
7
6
CONTINUOUS
10
108.3070730092
20
230.2886286517
11
108.3070730092
21
231.5318818395
0
LINE
5
2B1
100
AcDbEntity
8
0
100
AcDbLine
62
7
6
CONTINUOUS
10
108.3070730092
20
231.8870969887
11
108.3070730092
21
232.7751350274
0
LINE
5
2B2
100
AcDbEntity
8
0
100
AcDbLine
62
7
6
CONTINUOUS
10
111.7852217592
20
230.9398565080
11
111.8315971643
21
231.2358691323
0
LINE
5
2B3
100
AcDbEntity
8
0
100
AcDbLine
62
7
6
CONTINUOUS
10
111.5533452643
20
231.2358691323
11
111.5069698592
21
230.9990590329
0
LINE
5
2B4
100
AcDbEntity
8
0
100
AcDbLine
62
7
6
CONTINUOUS
10
113.9184861490
20
230.7030463671
11
114.0112369592
21
230.9398565080
0
LINE
5
2B5
100
AcDbEntity
8
0
100
AcDbLine
62
7
6
CONTINUOUS
10
91.8508465355
20
217.7058226220
11
91.9977357275
21
217.6434718592
0
LINE
5
2B6
100
AcDbEntity
8
0
100
AcDbLine
62
7
6
CONTINUOUS
10
92.1443815279
20
217.8528145044
11
91.9485293176
21
217.9359488353
0
LINE
5
2B7
100
AcDbEntity
8
0
100
AcDbLine
62
7
6
CONTINUOUS
10
91.5564602897
20
218.5097574054
11
93.8577224233
21
217.5329295842
0
LINE
5
2B8
100
AcDbEntity
8
0
100
AcDbLine
62
7
6
CONTINUOUS
10
93.9554052520
20
217.7630559073
11
92.1437733012
21
218.5320480467
0
LINE
5
2B9
100
AcDbEntity
8
0
100
AcDbLine
62
7
6
CONTINUOUS
10
93.8845666124
20
223.9944321938
11
95.6968066651
21
222.5462066947
0
LINE
5
2BA
100
AcDbEntity
8
0
100
AcDbLine
62
7
6
CONTINUOUS
10
96.0067435834
20
222.5957061685
11
94.4230381863
21
223.9016596187
0
LINE
5
2BB
100
AcDbEntity
8
0
100
AcDbLine
62
7
6
CONTINUOUS
10
94.8948066274
20
225.4214760486
11
95.0580978973
21
225.2616333306
0
LINE
5
2BC
100
AcDbEntity
8
0
100
AcDbLine
62
7
6
CONTINUOUS
10
96.5911376128
20
225.8783173649
11
96.8197937778
21
225.6001981730
0
LINE
5
2BD
100
AcDbEntity
8
0
100
AcDbLine
62
7
6
CONTINUOUS
10
102.5360122840
20
229.0645586696
11
102.5709744951
21
228.9373355498
0
LINE
5
2BE
100
AcDbEntity
8
0
100
AcDbLine
62
7
6
CONTINUOUS
10
102.5009398459
20
230.1253059143
11
102.5359021166
21
229.9980826913
0
LINE
5
2BF
100
AcDbEntity
8
0
100
AcDbLine
62
7
6
CONTINUOUS
10
103.9566153063
20
229.7373356451
11
103.9216529300
21
229.8645586696
0
LINE
5
2C0
100
AcDbEntity
8
0
100
AcDbLine
62
7
6
CONTINUOUS
10
105.0231070244
20
231.0901178035
11
105.0367924771
21
230.9997467288
0
LINE
5
2C1
100
AcDbEntity
8
0
100
AcDbLine
62
7
6
CONTINUOUS
10
106.1840121198
20
230.6793704326
11
106.1703266597
21
230.7697415202
0
LINE
5
2C2
100
AcDbEntity
8
0
100
AcDbLine
62
7
6
CONTINUOUS
10
106.3967780743
20
230.3108489894
11
106.4104641877
21
230.2204782961
0
LINE
5
2C3
100
AcDbEntity
8
0
100
AcDbLine
62
7
6
CONTINUOUS
10
109.4664558817
20
232.4199198783
11
109.4664558817
21
232.2423121378
0
LINE
5
2C4
100
AcDbEntity
8
0
100
AcDbLine
62
7
6
CONTINUOUS
10
109.7447077817
20
232.1831096130
11
109.7447077817
21
232.4199198783
0
LINE
5
2C5
100
AcDbEntity
8
0
100
AcDbLine
62
7
6
CONTINUOUS
10
110.1620856317
20
233.0711476517
11
110.1620856317
21
231.2358691323
0
LINE
5
2C6
100
AcDbEntity
8
0
100
AcDbLine
62
7
6
CONTINUOUS
10
110.4403376643
20
231.2358691323
11
110.4403376643
21
233.0711476517
0
LINE
5
2C7
100
AcDbEntity
8
DEFAULT_1
100
AcDbLine
62
2
6
CENTER
10
111.0188211092
20
212.4486286517
11
111.0188211092
21
186.5505952381
0
LINE
5
2C8
100
AcDbEntity
8
DEFAULT_1
100
AcDbLine
62
2
6
CENTER
10
111.0188211092
20
212.4486286517
11
111.0188211092
21
227.9486286517
0
LINE
5
2C9
100
AcDbEntity
8
0
100
AcDbLine
62
7
6
CONTINUOUS
10
114.0112369592
20
230.9398565080
11
114.0576120990
21
231.2358691323
0
LINE
5
2CA
100
AcDbEntity
8
0
100
AcDbLine
62
7
6
CONTINUOUS
10
113.7793601990
20
231.2358691323
11
113.7329850592
21
230.9990590329
0
LINE
5
2CB
100
AcDbEntity
8
DEFAULT_1
100
AcDbLine
62
2
6
CENTER
10
111.0188211092
20
212.4486286517
11
95.5188211092
21
212.4486286517
0
LINE
5
2CC
100
AcDbEntity
8
DEFAULT_1
100
AcDbLine
62
2
6
CENTER
10
111.0188211092
20
212.4486286517
11
126.5188211092
21
212.4486286517
0
LINE
5
2CD
100
AcDbEntity
8
0
100
AcDbLine
62
7
6
CONTINUOUS
10
92.7298699939
20
219.9128053269
11
94.5415019447
21
219.1438131875
0
LINE
5
2CE
100
AcDbEntity
8
0
100
AcDbLine
62
7
6
CONTINUOUS
10
94.6391847268
20
219.3739394009
11
92.3379225932
21
220.3507672221
0
LINE
5
2CF
100
AcDbEntity
8
0
100
AcDbLine
62
7
6
CONTINUOUS
10
95.0580978973
20
225.2616333306
11
95.1887065015
21
225.1609279064
0
LINE
5
2D0
100
AcDbEntity
8
0
100
AcDbLine
62
7
6
CONTINUOUS
10
96.9664395782
20
225.8095408182
11
96.8031482739
21
225.9693835506
0
LINE
5
2D1
100
AcDbEntity
8
0
100
AcDbLine
62
7
6
CONTINUOUS
10
100.5624381283
20
227.4828893797
11
100.6688211092
21
227.2986286517
0
LINE
5
2D2
100
AcDbEntity
8
0
100
AcDbLine
62
7
6
CONTINUOUS
10
100.7688890383
20
229.1253059143
11
100.8114422843
21
229.0516015302
0
LINE
5
2D3
100
AcDbEntity
8
0
100
AcDbLine
62
7
6
CONTINUOUS
10
101.7080515938
20
227.8986286517
11
101.6016686128
21
228.0828893797
0
LINE
5
2D4
100
AcDbEntity
8
0
100
AcDbLine
62
7
6
CONTINUOUS
10
100.9846473651
20
229.1516015302
11
100.9420941190
21
229.2253059143
0
LINE
5
2D5
100
AcDbEntity
8
0
100
AcDbLine
62
7
6
CONTINUOUS
10
100.9389917290
20
229.7640128085
11
101.4921832120
21
228.8058570536
0
LINE
5
2D6
100
AcDbEntity
8
0
100
AcDbLine
62
7
6
CONTINUOUS
10
101.5301378408
20
229.0734511050
11
101.1897122898
21
229.6630854555
0
LINE
5
2D7
100
AcDbEntity
8
0
100
AcDbLine
62
7
6
CONTINUOUS
10
102.7790317847
20
229.8436365470
11
102.6802397940
21
230.0814160882
0
LINE
5
2D8
100
AcDbEntity
8
0
100
AcDbLine
62
7
6
CONTINUOUS
10
103.6785233972
20
230.0190049608
11
103.7773152526
21
229.7812252727
0
LINE
5
2D9
100
AcDbEntity
8
0
100
AcDbLine
62
7
6
CONTINUOUS
10
102.5359021166
20
229.9980826913
11
102.6134176793
21
229.7971553859
0
LINE
5
2DA
100
AcDbEntity
8
0
100
AcDbLine
62
7
6
CONTINUOUS
10
103.9216529300
20
229.8645586696
11
103.8441373375
21
230.0654860265
0
LINE
5
2DB
100
AcDbEntity
8
0
100
AcDbLine
62
7
6
CONTINUOUS
10
105.0367924771
20
230.9997467288
11
105.0930314466
21
230.8356715639
0
LINE
5
2DC
100
AcDbEntity
8
0
100
AcDbLine
62
7
6
CONTINUOUS
10
105.2586457173
20
230.8821528204
11
105.2236833410
21
231.0093758448
0
LINE
5
2DD
100
AcDbEntity
8
0
100
AcDbLine
62
7
6
CONTINUOUS
10
111.5533452643
20
233.0711476517
11
111.5533452643
21
231.2358691323
0
LINE
5
2DE
100
AcDbEntity
8
0
100
AcDbLine
62
7
6
CONTINUOUS
10
111.8315971643
20
231.2358691323
11
111.8315971643
21
233.0711476517
0
LINE
5
2DF
100
AcDbEntity
8
0
100
AcDbLine
62
7
6
CONTINUOUS
10
112.2025996092
20
233.0711476517
11
112.2025996092
21
230.2886286517
0
LINE
5
2E0
100
AcDbEntity
8
0
100
AcDbLine
62
7
6
CONTINUOUS
10
112.4808515092
20
230.6438438423
11
112.4808515092
21
232.7159325025
0
LINE
5
2E1
100
AcDbEntity
8
0
100
AcDbLine
62
7
6
CONTINUOUS
10
93.7274787448
20
217.2260947062
11
92.4548050140
21
217.3589275127
0
LINE
5
2E2
100
AcDbEntity
8
0
100
AcDbLine
62
7
6
CONTINUOUS
10
92.4550482451
20
217.0872341081
11
93.6135154680
21
216.9576140508
0
LINE
5
2E3
100
AcDbEntity
8
0
100
AcDbLine
62
7
6
CONTINUOUS
10
91.6876770325
20
217.7298189942
11
91.8508465355
21
217.7058226220
0
LINE
5
2E4
100
AcDbEntity
8
0
100
AcDbLine
62
7
6
CONTINUOUS
10
91.9485293176
20
217.9359488353
11
91.7853598146
21
217.9599452076
0
LINE
5
2E5
100
AcDbEntity
8
0
100
AcDbLine
62
7
6
CONTINUOUS
10
93.2496285286
20
222.4986118070
11
95.5508906623
21
221.5217839858
0
LINE
5
2E6
100
AcDbEntity
8
0
100
AcDbLine
62
7
6
CONTINUOUS
10
95.6485734444
20
221.7519101991
11
93.8369414936
21
222.5209023385
0
LINE
5
2E7
100
AcDbEntity
8
0
100
AcDbLine
62
7
6
CONTINUOUS
10
95.1887065015
20
225.1609279064
11
95.4172413776
21
225.0186562818
0
LINE
5
2E8
100
AcDbEntity
8
0
100
AcDbLine
62
7
6
CONTINUOUS
10
96.8031482739
20
225.9693835506
11
96.6725398070
21
226.0700889167
0
LINE
5
2E9
100
AcDbEntity
8
0
100
AcDbLine
62
7
6
CONTINUOUS
10
102.4934590975
20
229.1382629505
11
102.5360122840
21
229.0645586696
0
LINE
5
2EA
100
AcDbEntity
8
0
100
AcDbLine
62
7
6
CONTINUOUS
10
102.0268701251
20
230.1464187570
11
101.9204871591
21
230.3306794593
0
LINE
5
2EB
100
AcDbEntity
8
0
100
AcDbLine
62
7
6
CONTINUOUS
10
102.7016263894
20
229.1110398307
11
102.6165200166
21
229.2584483925
0
LINE
5
2EC
100
AcDbEntity
8
0
100
AcDbLine
62
7
6
CONTINUOUS
10
102.6134176793
20
229.7971553859
11
102.8049070181
21
229.4654861219
0
LINE
5
2ED
100
AcDbEntity
8
0
100
AcDbLine
62
7
6
CONTINUOUS
10
102.9279679372
20
229.5856715639
11
102.7790317847
21
229.8436365470
0
LINE
5
2EE
100
AcDbEntity
8
0
100
AcDbLine
62
7
6
CONTINUOUS
10
103.5295872448
20
230.2769699439
11
103.6785233972
21
230.0190049608
0
LINE
5
2EF
100
AcDbEntity
8
0
100
AcDbLine
62
7
6
CONTINUOUS
10
103.8441373375
20
230.0654860265
11
103.6526479986
21
230.3971552906
0
LINE
5
2F0
100
AcDbEntity
8
0
100
AcDbLine
62
7
6
CONTINUOUS
10
106.3405394240
20
230.4749243643
11
106.3967780743
21
230.3108489894
0
LINE
5
2F1
100
AcDbEntity
8
0
100
AcDbLine
62
7
6
CONTINUOUS
10
106.5760781429
20
230.2669593360
11
106.4848767710
21
230.5582575705
0
LINE
5
2F2
100
AcDbEntity
8
0
100
AcDbLine
62
7
6
CONTINUOUS
10
110.1620856317
20
231.2358691323
11
110.2084610368
21
230.9398565080
0
LINE
5
2F3
100
AcDbEntity
8
0
100
AcDbLine
62
7
6
CONTINUOUS
10
113.7793601990
20
232.1239070881
11
113.7793601990
21
231.2358691323
0
LINE
5
2F4
100
AcDbEntity
8
0
100
AcDbLine
62
7
6
CONTINUOUS
10
114.0576120990
20
231.2358691323
11
114.0576120990
21
232.1239070881
0
LINE
5
2F5
100
AcDbEntity
8
0
100
AcDbLine
62
7
6
CONTINUOUS
10
92.1437733012
20
218.5320480467
11
94.1833317126
21
218.3000169987
0
LINE
5
2F6
100
AcDbEntity
8
0
100
AcDbLine
62
7
6
CONTINUOUS
10
94.0036384727
20
218.5573524029
11
91.7029845094
21
218.8549468352
0
LINE
5
2F7
100
AcDbEntity
8
0
100
AcDbLine
62
7
6
CONTINUOUS
10
94.4230381863
20
223.9016596187
11
96.2346701371
21
223.1326674793
0
LINE
5
2F8
100
AcDbEntity
8
0
100
AcDbLine
62
7
6
CONTINUOUS
10
96.3323529192
20
223.3627936927
11
94.0310907856
21
224.3396215139
0
LINE
5
2F9
100
AcDbEntity
8
0
100
AcDbLine
62
7
6
CONTINUOUS
10
94.5040754989
20
224.5009711951
11
94.8957797823
21
224.3347025914
0
LINE
5
2FA
100
AcDbEntity
8
0
100
AcDbLine
62
7
6
CONTINUOUS
10
94.6507212993
20
224.7103138403
11
96.5602792867
21
223.8997545646
0
LINE
5
2FB
100
AcDbEntity
8
0
100
AcDbLine
62
7
6
CONTINUOUS
10
95.5476065901
20
225.1896442654
11
95.2701090683
21
225.3527003361
0
LINE
5
2FC
100
AcDbEntity
8
0
100
AcDbLine
62
7
6
CONTINUOUS
10
96.3136396497
20
226.0413725867
11
96.5911376128
21
225.8783173649
0
LINE
5
2FD
100
AcDbEntity
8
0
100
AcDbLine
62
7
6
CONTINUOUS
10
96.6725398070
20
226.0700889167
11
96.4440052349
21
226.2123614483
0
LINE
5
2FE
100
AcDbEntity
8
0
100
AcDbLine
62
7
6
CONTINUOUS
10
100.9420941190
20
229.2253059143
11
100.8281202603
21
229.3560478253
0
LINE
5
2FF
100
AcDbEntity
8
0
100
AcDbLine
62
7
6
CONTINUOUS
10
102.8049070181
20
229.4654861219
11
102.9401574173
21
229.2978919711
0
LINE
5
300
100
AcDbEntity
8
0
100
AcDbLine
62
7
6
CONTINUOUS
10
103.0844950947
20
229.3812253680
11
102.9279679372
21
229.5856715639
0
LINE
5
301
100
AcDbEntity
8
0
100
AcDbLine
62
7
6
CONTINUOUS
10
103.3730599518
20
230.4814159928
11
103.5295872448
21
230.2769699439
0
LINE
5
302
100
AcDbEntity
8
0
100
AcDbLine
62
7
6
CONTINUOUS
10
103.4793328859
20
231.2306794593
11
104.4793328859
21
229.4986286517
0
LINE
5
303
100
AcDbEntity
8
0
100
AcDbLine
62
7
6
CONTINUOUS
10
104.6236705633
20
229.5819620486
11
104.3896280082
21
229.9873356451
0
LINE
5
304
100
AcDbEntity
8
0
100
AcDbLine
62
7
6
CONTINUOUS
10
104.2619684489
20
230.2084484878
11
103.6236705633
21
231.3140128562
0
LINE
5
305
100
AcDbEntity
8
0
100
AcDbLine
62
7
6
CONTINUOUS
10
105.0930314466
20
230.8356715639
11
105.2632442221
21
230.5408543887
0
LINE
5
306
100
AcDbEntity
8
0
100
AcDbLine
62
7
6
CONTINUOUS
10
105.3863053063
20
230.6610399260
11
105.2586457173
21
230.8821528204
0
LINE
5
307
100
AcDbEntity
8
0
100
AcDbLine
62
7
6
CONTINUOUS
10
109.7910831868
20
230.2886286517
11
109.3737053368
21
231.6502868893
0
LINE
5
308
100
AcDbEntity
8
0
100
AcDbLine
62
7
6
CONTINUOUS
10
109.0954533704
20
231.5318818395
11
109.4664558817
21
230.2886286517
0
LINE
5
309
100
AcDbEntity
8
0
100
AcDbLine
62
7
6
CONTINUOUS
10
109.4200806092
20
232.5975274528
11
109.4664558817
21
232.4199198783
0
LINE
5
30A
100
AcDbEntity
8
0
100
AcDbLine
62
7
6
CONTINUOUS
10
109.7447077817
20
232.4199198783
11
109.6983325092
21
232.5975274528
0
LINE
5
30B
100
AcDbEntity
8
0
100
AcDbLine
62
7
6
CONTINUOUS
10
110.4867128041
20
230.9990590329
11
110.4403376643
21
231.2358691323
0
LINE
5
30C
100
AcDbEntity
8
DEFAULT_2
100
AcDbLine
62
8
6
HIDDEN
10
116.0188211092
20
200.9921894143
11
116.0188211092
21
191.4486286517
0
LINE
5
30D
100
AcDbEntity
8
0
100
AcDbLine
62
7
6
CONTINUOUS
10
96.6579620688
20
224.1298807779
11
94.3566999351
21
225.1067085991
0
LINE
5
30E
100
AcDbEntity
8
0
100
AcDbLine
62
7
6
CONTINUOUS
10
95.4172413776
20
225.0186562818
11
95.8579085422
21
224.8316041681
0
LINE
5
30F
100
AcDbEntity
8
0
100
AcDbLine
62
7
6
CONTINUOUS
10
95.8903477181
20
225.0441592881
11
95.5476065901
21
225.1896442654
0
LINE
5
310
100
AcDbEntity
8
0
100
AcDbLine
62
7
6
CONTINUOUS
10
95.9708985218
20
226.1868575640
11
96.3136396497
21
226.0413725867
0
LINE
5
311
100
AcDbEntity
8
0
100
AcDbLine
62
7
6
CONTINUOUS
10
96.4440052349
20
226.2123614483
11
96.0033380703
21
226.3994135619
0
LINE
5
312
100
AcDbEntity
8
0
100
AcDbLine
62
7
6
CONTINUOUS
10
101.6836725807
20
228.4741877379
11
101.8265139403
21
228.3601124519
0
LINE
5
313
100
AcDbEntity
8
0
100
AcDbLine
62
7
6
CONTINUOUS
10
101.9997191036
20
228.4601124995
11
101.8568775788
21
228.5741876902
0
LINE
5
314
100
AcDbEntity
8
0
100
AcDbLine
62
7
6
CONTINUOUS
10
102.6165200166
20
229.2584483925
11
102.4524020489
21
229.4093758448
0
LINE
5
315
100
AcDbEntity
8
0
100
AcDbLine
62
7
6
CONTINUOUS
10
102.4007617196
20
229.2321527250
11
102.4934590975
21
229.1382629505
0
LINE
5
316
100
AcDbEntity
8
0
100
AcDbLine
62
7
6
CONTINUOUS
10
102.9401574173
20
229.2978919711
11
103.0328547655
21
229.2040022482
0
LINE
5
317
100
AcDbEntity
8
0
100
AcDbLine
62
7
6
CONTINUOUS
10
103.6526479986
20
230.3971552906
11
103.5173976292
21
230.5647493897
0
LINE
5
318
100
AcDbEntity
8
0
100
AcDbLine
62
7
6
CONTINUOUS
10
105.6171351915
20
231.7278972493
11
105.7447947508
21
231.5067844066
0
LINE
5
319
100
AcDbEntity
8
0
100
AcDbLine
62
7
6
CONTINUOUS
10
105.8511777168
20
231.3225237043
11
106.0639436787
21
230.9540022482
0
LINE
5
31A
100
AcDbEntity
8
0
100
AcDbLine
62
7
6
CONTINUOUS
10
106.1703266597
20
230.7697415202
11
106.3405394240
21
230.4749243643
0
LINE
5
31B
100
AcDbEntity
8
0
100
AcDbLine
62
7
6
CONTINUOUS
10
106.4848767710
20
230.5582575705
11
105.7614725386
21
231.8112304555
0
LINE
5
31C
100
AcDbEntity
8
0
100
AcDbLine
62
7
6
CONTINUOUS
10
110.2084610368
20
230.9398565080
11
110.3012117143
21
230.7030463671
0
LINE
5
31D
100
AcDbEntity
8
0
100
AcDbLine
62
7
6
CONTINUOUS
10
113.7329850592
20
232.3607171875
11
113.7793601990
21
232.1239070881
0
LINE
5
31E
100
AcDbEntity
8
0
100
AcDbLine
62
7
6
CONTINUOUS
10
114.0576120990
20
232.1239070881
11
114.0112369592
21
232.4199198783
0
LINE
5
31F
100
AcDbEntity
8
0
100
AcDbLine
62
7
6
CONTINUOUS
10
91.7853598146
20
217.9599452076
11
91.5406663504
21
217.9280163737
0
LINE
5
320
100
AcDbEntity
8
0
100
AcDbLine
62
7
6
CONTINUOUS
10
93.8369414936
20
222.5209023385
11
95.8764999981
21
222.2888715099
0
LINE
5
321
100
AcDbEntity
8
0
100
AcDbLine
62
7
6
CONTINUOUS
10
95.6968066651
20
222.5462066947
11
93.3961527018
21
222.8438011270
0
LINE
5
322
100
AcDbEntity
8
0
100
AcDbLine
62
7
6
CONTINUOUS
10
95.8579085422
20
224.8316041681
11
96.1190039174
21
224.7660400817
0
LINE
5
323
100
AcDbEntity
8
0
100
AcDbLine
62
7
6
CONTINUOUS
10
96.2004064843
20
224.9578125114
11
95.8903477181
21
225.0441592881
0
LINE
5
324
100
AcDbEntity
8
0
100
AcDbLine
62
7
6
CONTINUOUS
10
95.6608401968
20
226.2732051895
11
95.9708985218
21
226.1868575640
0
LINE
5
325
100
AcDbEntity
8
0
100
AcDbLine
62
7
6
CONTINUOUS
10
101.8265139403
20
228.3601124519
11
101.9982229435
21
228.2627039248
0
LINE
5
326
100
AcDbEntity
8
0
100
AcDbLine
62
7
6
CONTINUOUS
10
100.6473242042
20
229.2025289864
11
100.7688890383
21
229.1253059143
0
LINE
5
327
100
AcDbEntity
8
0
100
AcDbLine
62
7
6
CONTINUOUS
10
103.0328547655
20
229.2040022482
11
103.1756961251
21
229.0899269622
0
LINE
5
328
100
AcDbEntity
8
0
100
AcDbLine
62
7
6
CONTINUOUS
10
103.5173976292
20
230.5647493897
11
103.4247003867
21
230.6586393112
0
LINE
5
329
100
AcDbEntity
8
0
100
AcDbLine
62
7
6
CONTINUOUS
10
105.6036697507
20
229.9512200770
11
105.7890644693
21
229.7634405925
0
LINE
5
32A
100
AcDbEntity
8
0
100
AcDbLine
62
7
6
CONTINUOUS
10
105.8407046185
20
229.9406636427
11
105.7480074281
21
230.0345534739
0
LINE
5
32B
100
AcDbEntity
8
0
100
AcDbLine
62
7
6
CONTINUOUS
10
105.4790024893
20
230.5671501078
11
105.3863053063
21
230.6610399260
0
LINE
5
32C
100
AcDbEntity
8
0
100
AcDbLine
62
7
6
CONTINUOUS
10
105.2632442221
20
230.5408543887
11
105.3772180132
21
230.4101124042
0
LINE
5
32D
100
AcDbEntity
8
0
100
AcDbLine
62
7
6
CONTINUOUS
10
109.6983325092
20
232.5975274528
11
109.5592065592
21
232.8343375523
0
LINE
5
32E
100
AcDbEntity
8
0
100
AcDbLine
62
7
6
CONTINUOUS
10
110.5794636143
20
230.8214514583
11
110.4867128041
21
230.9990590329
0
LINE
5
32F
100
AcDbEntity
8
0
100
AcDbLine
62
7
6
CONTINUOUS
10
91.5571900530
20
217.6946773562
11
91.6876770325
21
217.7298189942
0
LINE
5
330
100
AcDbEntity
8
0
100
AcDbLine
62
7
6
CONTINUOUS
10
96.1190039174
20
224.7660400817
11
96.2821735602
21
224.7420440386
0
LINE
5
331
100
AcDbEntity
8
0
100
AcDbLine
62
7
6
CONTINUOUS
10
96.0033380703
20
226.3994135619
11
95.7422423910
21
226.4649767414
0
LINE
5
332
100
AcDbEntity
8
0
100
AcDbLine
62
7
6
CONTINUOUS
10
102.4524020489
20
229.4093758448
11
102.2806931357
21
229.5067844066
0
LINE
5
333
100
AcDbEntity
8
0
100
AcDbLine
62
7
6
CONTINUOUS
10
102.2791969681
20
229.3093758448
11
102.4007617196
21
229.2321527250
0
LINE
5
334
100
AcDbEntity
8
0
100
AcDbLine
62
7
6
CONTINUOUS
10
103.3276247778
20
229.2267791980
11
103.0844950947
21
229.3812253680
0
LINE
5
335
100
AcDbEntity
8
0
100
AcDbLine
62
7
6
CONTINUOUS
10
103.1299303893
20
230.6358623357
11
103.3730599518
21
230.4814159928
0
LINE
5
336
100
AcDbEntity
8
0
100
AcDbLine
62
7
6
CONTINUOUS
10
103.4247003867
20
230.6586393112
11
103.2818588768
21
230.7727144761
0
LINE
5
337
100
AcDbEntity
8
0
100
AcDbLine
62
7
6
CONTINUOUS
10
105.3772180132
20
230.4101124042
11
105.4486389333
21
230.3530749171
0
LINE
5
338
100
AcDbEntity
8
0
100
AcDbLine
62
7
6
CONTINUOUS
10
105.5504230939
20
230.5101124042
11
105.4790024893
21
230.5671501078
0
LINE
5
339
100
AcDbEntity
8
0
100
AcDbLine
62
7
6
CONTINUOUS
10
110.3012117143
20
230.7030463671
11
110.4867128041
21
230.4662362470
0
LINE
5
33A
100
AcDbEntity
8
0
100
AcDbLine
62
7
6
CONTINUOUS
10
109.3273299317
20
232.7159325025
11
109.4200806092
21
232.5975274528
0
LINE
5
33B
100
AcDbEntity
8
0
100
AcDbLine
62
7
6
CONTINUOUS
10
114.0112369592
20
232.4199198783
11
113.9184861490
21
232.6567299777
0
LINE
5
33C
100
AcDbEntity
8
0
100
AcDbLine
62
7
6
CONTINUOUS
10
123.5188211092
20
190.9486286517
11
123.5188211092
21
192.4932410600
0
LINE
5
33D
100
AcDbEntity
8
DEFAULT_2
100
AcDbLine
62
8
6
HIDDEN
10
106.0188211092
20
191.4486286517
11
105.0188211092
21
190.4486286517
0
LINE
5
33E
100
AcDbEntity
8
0
100
AcDbLine
62
7
6
CONTINUOUS
10
96.5593062346
20
224.9865279781
11
96.2004064843
21
224.9578125114
0
LINE
5
33F
100
AcDbEntity
8
0
100
AcDbLine
62
7
6
CONTINUOUS
10
96.2821735602
20
224.7420440386
11
96.5105864708
21
224.7356181965
0
LINE
5
340
100
AcDbEntity
8
0
100
AcDbLine
62
7
6
CONTINUOUS
10
95.5790726111
20
226.4889728426
11
95.3506597348
21
226.4953986702
0
LINE
5
341
100
AcDbEntity
8
0
100
AcDbLine
62
7
6
CONTINUOUS
10
95.7422423910
20
226.4649767414
11
95.5790726111
21
226.4889728426
0
LINE
5
342
100
AcDbEntity
8
0
100
AcDbLine
62
7
6
CONTINUOUS
10
100.8281202603
20
229.3560478253
11
100.6275437786
21
229.4367896887
0
LINE
5
343
100
AcDbEntity
8
0
100
AcDbLine
62
7
6
CONTINUOUS
10
103.1756961251
20
229.0899269622
11
103.3261284525
21
229.0293705279
0
LINE
5
344
100
AcDbEntity
8
0
100
AcDbLine
62
7
6
CONTINUOUS
10
105.2876231526
20
229.9652952548
11
104.4503551202
21
230.4154860265
0
LINE
5
345
100
AcDbEntity
8
0
100
AcDbLine
62
7
6
CONTINUOUS
10
104.4275823892
20
230.2549295536
11
105.1144180719
21
229.8652952548
0
LINE
5
346
100
AcDbEntity
8
0
100
AcDbLine
62
7
6
CONTINUOUS
10
105.9622695501
20
229.8634405925
11
105.8407046185
21
229.9406636427
0
LINE
5
347
100
AcDbEntity
8
0
100
AcDbLine
62
7
6
CONTINUOUS
10
105.7296131305
20
231.3997469195
11
105.8511777168
21
231.3225237043
0
LINE
5
348
100
AcDbEntity
8
0
100
AcDbLine
62
7
6
CONTINUOUS
10
105.7447947508
20
231.5067844066
11
105.6733738307
21
231.5638218937
0
LINE
5
349
100
AcDbEntity
8
0
100
AcDbLine
62
7
6
CONTINUOUS
10
113.6402342490
20
232.5383249280
11
113.7329850592
21
232.3607171875
0
LINE
5
34A
100
AcDbEntity
8
0
100
AcDbLine
62
7
6
CONTINUOUS
10
96.5105864708
20
224.7356181965
11
96.7063169338
21
224.7883305914
0
LINE
5
34B
100
AcDbEntity
8
0
100
AcDbLine
62
7
6
CONTINUOUS
10
95.3019399710
20
226.2444888887
11
95.6608401968
21
226.2732051895
0
LINE
5
34C
100
AcDbEntity
8
0
100
AcDbLine
62
7
6
CONTINUOUS
10
101.9982229435
20
228.2627039248
11
102.2063902410
21
228.2354807954
0
LINE
5
34D
100
AcDbEntity
8
0
100
AcDbLine
62
7
6
CONTINUOUS
10
103.3261284525
20
229.0293705279
11
103.5342957500
21
229.0021473984
0
LINE
5
34E
100
AcDbEntity
8
0
100
AcDbLine
62
7
6
CONTINUOUS
10
102.2806931357
20
229.5067844066
11
102.0725258438
21
229.5340075264
0
LINE
5
34F
100
AcDbEntity
8
0
100
AcDbLine
62
7
6
CONTINUOUS
10
102.1288748304
20
228.4364082186
11
101.9997191036
21
228.4601124995
0
LINE
5
350
100
AcDbEntity
8
0
100
AcDbLine
62
7
6
CONTINUOUS
10
100.5181684774
20
229.2262332673
11
100.6473242042
21
229.2025289864
0
LINE
5
351
100
AcDbEntity
8
0
100
AcDbLine
62
7
6
CONTINUOUS
10
102.1500412413
20
229.3330801257
11
102.2791969681
21
229.3093758448
0
LINE
5
352
100
AcDbEntity
8
0
100
AcDbLine
62
7
6
CONTINUOUS
10
103.4567805046
20
229.2030749171
11
103.3276247778
21
229.2267791980
0
LINE
5
353
100
AcDbEntity
8
0
100
AcDbLine
62
7
6
CONTINUOUS
10
103.2818588768
20
230.7727144761
11
103.1314265568
21
230.8332708975
0
LINE
5
354
100
AcDbEntity
8
0
100
AcDbLine
62
7
6
CONTINUOUS
10
105.7890644693
20
229.7634405925
11
105.9394967893
21
229.7028841711
0
LINE
5
355
100
AcDbEntity
8
0
100
AcDbLine
62
7
6
CONTINUOUS
10
105.4486389333
20
230.3530749171
11
105.5990712607
21
230.2925184828
0
LINE
5
356
100
AcDbEntity
8
0
100
AcDbLine
62
7
6
CONTINUOUS
10
105.6733738307
20
231.5638218937
11
105.5730858376
21
231.6041929684
0
LINE
5
357
100
AcDbEntity
8
0
100
AcDbLine
62
7
6
CONTINUOUS
10
110.4867128041
20
230.4662362470
11
110.6722141592
21
230.3478311817
0
LINE
5
358
100
AcDbEntity
8
0
100
AcDbLine
62
7
6
CONTINUOUS
10
110.7185895643
20
230.7030463671
11
110.5794636143
21
230.8214514583
0
LINE
5
359
100
AcDbEntity
8
0
100
AcDbLine
62
7
6
CONTINUOUS
10
109.5592065592
20
232.8343375523
11
109.3737053368
21
233.0119451268
0
LINE
5
35A
100
AcDbEntity
8
0
100
AcDbLine
62
7
6
CONTINUOUS
10
113.9184861490
20
232.6567299777
11
113.7329850592
21
232.8935400771
0
LINE
5
35B
100
AcDbEntity
8
0
100
AcDbLine
62
7
6
CONTINUOUS
10
102.2063902410
20
228.2354807954
11
102.3720043483
21
228.2819619532
0
LINE
5
35C
100
AcDbEntity
8
0
100
AcDbLine
62
7
6
CONTINUOUS
10
95.3506597348
20
226.4953986702
11
95.1549292889
21
226.4426862681
0
LINE
5
35D
100
AcDbEntity
8
0
100
AcDbLine
62
7
6
CONTINUOUS
10
113.3156072092
20
230.2886286517
11
113.5474839695
21
230.3478311817
0
LINE
5
35E
100
AcDbEntity
8
0
100
AcDbLine
62
7
6
CONTINUOUS
10
111.0895920092
20
230.2886286517
11
111.3214685041
21
230.3478311817
0
LINE
5
35F
100
AcDbEntity
8
0
100
AcDbLine
62
7
6
CONTINUOUS
10
102.2656213673
20
228.4662226813
11
102.1288748304
21
228.4364082186
0
LINE
5
360
100
AcDbEntity
8
0
100
AcDbLine
62
7
6
CONTINUOUS
10
106.0686525161
20
229.6791798902
11
106.2053990531
21
229.7089943529
0
LINE
5
361
100
AcDbEntity
8
0
100
AcDbLine
62
7
6
CONTINUOUS
10
108.0288211092
20
230.2886286517
11
108.3070730092
21
230.2886286517
0
LINE
5
362
100
AcDbEntity
8
0
100
AcDbLine
62
7
6
CONTINUOUS
10
109.4664558817
20
230.2886286517
11
109.7910831868
21
230.2886286517
0
LINE
5
363
100
AcDbEntity
8
0
100
AcDbLine
62
7
6
CONTINUOUS
10
110.9040906541
20
230.2886286517
11
111.0895920092
21
230.2886286517
0
LINE
5
364
100
AcDbEntity
8
0
100
AcDbLine
62
7
6
CONTINUOUS
10
112.2025996092
20
230.2886286517
11
113.3156072092
21
230.2886286517
0
LINE
5
365
100
AcDbEntity
8
0
100
AcDbLine
62
7
6
CONTINUOUS
10
100.6275437786
20
229.4367896887
11
100.4695205658
21
229.4438273188
0
LINE
5
366
100
AcDbEntity
8
0
100
AcDbLine
62
7
6
CONTINUOUS
10
106.1202926802
20
229.8564029147
11
105.9622695501
21
229.8634405925
0
LINE
5
367
100
AcDbEntity
8
0
100
AcDbLine
62
7
6
CONTINUOUS
10
103.1314265568
20
230.8332708975
11
102.9232590998
21
230.8604939219
0
LINE
5
368
100
AcDbEntity
8
0
100
AcDbLine
62
7
6
CONTINUOUS
10
105.9394967893
20
229.7028841711
11
106.0686525161
21
229.6791798902
0
LINE
5
369
100
AcDbEntity
8
0
100
AcDbLine
62
7
6
CONTINUOUS
10
103.0007746625
20
230.6595666166
11
103.1299303893
21
230.6358623357
0
LINE
5
36A
100
AcDbEntity
8
0
100
AcDbLine
62
7
6
CONTINUOUS
10
105.5990712607
20
230.2925184828
11
105.7282269931
21
230.2688141923
0
LINE
5
36B
100
AcDbEntity
8
0
100
AcDbLine
62
7
6
CONTINUOUS
10
105.6795788207
20
230.4864081233
11
105.5504230939
21
230.5101124042
0
LINE
5
36C
100
AcDbEntity
8
0
100
AcDbLine
62
7
6
CONTINUOUS
10
105.6004570734
20
231.4234510097
11
105.7296131305
21
231.3997469195
0
LINE
5
36D
100
AcDbEntity
8
0
100
AcDbLine
62
7
6
CONTINUOUS
10
110.6722141592
20
230.3478311817
11
110.9040906541
21
230.2886286517
0
LINE
5
36E
100
AcDbEntity
8
0
100
AcDbLine
62
7
6
CONTINUOUS
10
110.9040906541
20
230.6438438423
11
110.7185895643
21
230.7030463671
0
LINE
5
36F
100
AcDbEntity
8
0
100
AcDbLine
62
7
6
CONTINUOUS
10
109.1882039817
20
232.7751350274
11
109.3273299317
21
232.7159325025
0
LINE
5
370
100
AcDbEntity
8
0
100
AcDbLine
62
7
6
CONTINUOUS
10
113.5011082990
20
232.6567299777
11
113.6402342490
21
232.5383249280
0
LINE
5
371
100
AcDbEntity
8
0
100
AcDbLine
62
7
6
CONTINUOUS
10
103.6223944449
20
229.2495559828
11
103.4567805046
21
229.2030749171
0
LINE
5
372
100
AcDbEntity
8
0
100
AcDbLine
62
7
6
CONTINUOUS
10
102.0725258438
20
229.5340075264
11
101.9069115732
21
229.4875262699
0
LINE
5
373
100
AcDbEntity
8
0
100
AcDbLine
62
7
6
CONTINUOUS
10
100.3525543307
20
229.1797520824
11
100.5181684774
21
229.2262332673
0
LINE
5
374
100
AcDbEntity
8
0
100
AcDbLine
62
7
6
CONTINUOUS
10
102.8351603918
20
230.6130853601
11
103.0007746625
21
230.6595666166
0
LINE
5
375
100
AcDbEntity
8
0
100
AcDbLine
62
7
6
CONTINUOUS
10
102.0132945392
20
229.3032655677
11
102.1500412413
21
229.3330801257
0
LINE
5
376
100
AcDbEntity
8
0
100
AcDbLine
62
7
6
CONTINUOUS
10
105.7282269931
20
230.2688141923
11
105.8649735319
21
230.2986286517
0
LINE
5
377
100
AcDbEntity
8
0
100
AcDbLine
62
7
6
CONTINUOUS
10
105.8163256880
20
230.5162227766
11
105.6795788207
21
230.4864081233
0
LINE
5
378
100
AcDbEntity
8
0
100
AcDbLine
62
7
6
CONTINUOUS
10
105.4637105364
20
231.3936365470
11
105.6004570734
21
231.4234510097
0
LINE
5
379
100
AcDbEntity
8
0
100
AcDbLine
62
7
6
CONTINUOUS
10
105.4940741073
20
231.6077117119
11
105.3573275704
21
231.5778972493
0
LINE
5
37A
100
AcDbEntity
8
0
100
AcDbLine
62
7
6
CONTINUOUS
10
113.3156072092
20
230.6438438423
11
112.4808515092
21
230.6438438423
0
LINE
5
37B
100
AcDbEntity
8
0
100
AcDbLine
62
7
6
CONTINUOUS
10
111.0895920092
20
230.6438438423
11
110.9040906541
21
230.6438438423
0
LINE
5
37C
100
AcDbEntity
8
0
100
AcDbLine
62
7
6
CONTINUOUS
10
108.3070730092
20
231.5318818395
11
109.0954533704
21
231.5318818395
0
LINE
5
37D
100
AcDbEntity
8
0
100
AcDbLine
62
7
6
CONTINUOUS
10
109.1882039817
20
231.8870969887
11
108.3070730092
21
231.8870969887
0
LINE
5
37E
100
AcDbEntity
8
0
100
AcDbLine
62
7
6
CONTINUOUS
10
105.5730858376
20
231.6041929684
11
105.4940741073
21
231.6077117119
0
LINE
5
37F
100
AcDbEntity
8
0
100
AcDbLine
62
7
6
CONTINUOUS
10
109.3737053368
20
233.0119451268
11
109.1418287092
21
233.0711476517
0
LINE
5
380
100
AcDbEntity
8
0
100
AcDbLine
62
7
6
CONTINUOUS
10
113.3156072092
20
232.7159325025
11
113.5011082990
21
232.6567299777
0
LINE
5
381
100
AcDbEntity
8
0
100
AcDbLine
62
7
6
CONTINUOUS
10
113.7329850592
20
232.8935400771
11
113.5474839695
21
233.0119451268
0
LINE
5
382
100
AcDbEntity
8
0
100
AcDbLine
62
7
6
CONTINUOUS
10
133.9732280799
20
211.6832617870
11
127.7299095955
21
196.6105576276
0
LINE
5
383
100
AcDbEntity
8
0
100
AcDbLine
62
7
6
CONTINUOUS
10
112.4808515092
20
232.7159325025
11
113.3156072092
21
232.7159325025
0
LINE
5
384
100
AcDbEntity
8
0
100
AcDbLine
62
7
6
CONTINUOUS
10
108.3070730092
20
232.7751350274
11
109.1882039817
21
232.7751350274
0
LINE
5
385
100
AcDbEntity
8
0
100
AcDbLine
62
7
6
CONTINUOUS
10
113.3156072092
20
233.0711476517
11
112.2025996092
21
233.0711476517
0
LINE
5
386
100
AcDbEntity
8
0
100
AcDbLine
62
7
6
CONTINUOUS
10
111.8315971643
20
233.0711476517
11
111.5533452643
21
233.0711476517
0
LINE
5
387
100
AcDbEntity
8
0
100
AcDbLine
62
7
6
CONTINUOUS
10
110.4403376643
20
233.0711476517
11
110.1620856317
21
233.0711476517
0
LINE
5
388
100
AcDbEntity
8
0
100
AcDbLine
62
7
6
CONTINUOUS
10
109.1418287092
20
233.0711476517
11
108.0288211092
21
233.0711476517
0
LINE
5
389
100
AcDbEntity
8
0
100
AcDbLine
62
7
6
CONTINUOUS
10
113.5474839695
20
233.0119451268
11
113.3156072092
21
233.0711476517
0
LINE
5
38A
100
AcDbEntity
8
0
100
AcDbLine
62
7
6
CONTINUOUS
10
111.7841879739
20
235.4030356224
11
126.7088418362
21
229.2210415789
0
LINE
5
38B
100
AcDbEntity
8
0
100
AcDbLine
62
7
6
CONTINUOUS
10
127.7912340365
20
228.1386493787
11
133.9732280799
21
213.2139955164
0
LINE
5
38C
100
AcDbEntity
8
0
100
AcDbLine
62
7
6
CONTINUOUS
10
123.0188211092
20
190.4486286517
11
123.5188211092
21
190.9486286517
0
LINE
5
38D
100
AcDbEntity
8
0
100
AcDbLine
62
7
6
CONTINUOUS
10
283.3771299559
20
190.4486286517
11
282.8771299559
21
190.9486286517
0
LINE
5
38E
100
AcDbEntity
8
0
100
AcDbLine
62
7
6
CONTINUOUS
10
283.3773396992
20
190.4486286517
11
307.3769202125
21
190.4486286517
0
LINE
5
38F
100
AcDbEntity
8
0
100
AcDbLine
62
7
6
CONTINUOUS
10
282.8771299559
20
190.9486286517
11
307.8771299559
21
190.9486286517
0
LINE
5
390
100
AcDbEntity
8
DEFAULT_2
100
AcDbLine
62
8
6
HIDDEN
10
300.3771299559
20
191.4486286517
11
290.3771299559
21
191.4486286517
0
LINE
5
391
100
AcDbEntity
8
0
100
AcDbLine
62
7
6
CONTINUOUS
10
300.7818283275
20
195.9932410600
11
297.9779055036
21
195.9932410600
0
LINE
5
392
100
AcDbEntity
8
0
100
AcDbLine
62
7
6
CONTINUOUS
10
292.7763558006
20
195.9932410600
11
289.9724315843
21
195.9932410600
0
LINE
5
393
100
AcDbEntity
8
0
100
AcDbLine
62
7
6
CONTINUOUS
10
282.8771299559
20
190.9486286517
11
282.8771299559
21
196.4670961408
0
LINE
5
394
100
AcDbEntity
8
0
100
AcDbLine
62
7
6
CONTINUOUS
10
284.1424782583
20
197.9486286517
11
288.4100818154
21
198.6245506526
0
LINE
5
395
100
AcDbEntity
8
0
100
AcDbLine
62
7
6
CONTINUOUS
10
306.6117816534
20
197.9486286517
11
302.3332523542
21
198.6262811201
0
LINE
5
396
100
AcDbEntity
8
DEFAULT_2
100
AcDbLine
62
8
6
HIDDEN
10
300.3771299559
20
191.4486286517
11
301.3771299559
21
190.4486286517
0
LINE
5
397
100
AcDbEntity
8
0
100
AcDbLine
62
7
6
CONTINUOUS
10
290.3771299559
20
234.5552765495
11
290.3771299559
21
212.9028677013
0
LINE
5
398
100
AcDbEntity
8
DEFAULT_2
100
AcDbLine
62
8
6
HIDDEN
10
290.3771299559
20
199.9487310089
11
290.3771299559
21
191.4486286517
0
LINE
5
399
100
AcDbEntity
8
0
100
AcDbLine
62
7
6
CONTINUOUS
10
290.3369807044
20
212.0081809886
11
288.8237115286
21
195.4072271101
0
LINE
5
39A
100
AcDbEntity
8
DEFAULT_1
100
AcDbLine
62
2
6
CENTER
10
295.3771299559
20
236.5624999720
11
295.3771299559
21
187.4486286517
0
LINE
5
39B
100
AcDbEntity
8
0
100
AcDbLine
62
7
6
CONTINUOUS
10
300.3771299559
20
215.7686286517
11
300.6771299559
21
215.7686286517
0
LINE
5
39C
100
AcDbEntity
8
0
100
AcDbLine
62
7
6
CONTINUOUS
10
301.9305483830
20
195.4072271113
11
300.4172792073
21
212.0081809886
0
LINE
5
39D
100
AcDbEntity
8
DEFAULT_2
100
AcDbLine
62
8
6
HIDDEN
10
300.3771299559
20
199.9487574244
11
300.3771299559
21
191.4486286517
0
LINE
5
39E
100
AcDbEntity
8
0
100
AcDbLine
62
7
6
CONTINUOUS
10
300.3771629300
20
212.8938506146
11
300.3771299559
21
234.5552765495
0
LINE
5
39F
100
AcDbEntity
8
0
100
AcDbLine
62
7
6
CONTINUOUS
10
300.6771299559
20
233.0711476517
11
300.6771299559
21
227.2986286517
0
LINE
5
3A0
100
AcDbEntity
8
0
100
AcDbLine
62
7
6
CONTINUOUS
10
300.6771299559
20
226.4953986702
11
300.6771299559
21
221.5217839858
0
LINE
5
3A1
100
AcDbEntity
8
0
100
AcDbLine
62
7
6
CONTINUOUS
10
300.6771299559
20
220.3507672221
11
300.6771299559
21
215.7686286517
0
LINE
5
3A2
100
AcDbEntity
8
0
100
AcDbLine
62
7
6
CONTINUOUS
10
300.3771299559
20
220.3507672221
11
300.6771299559
21
220.3507672221
0
LINE
5
3A3
100
AcDbEntity
8
0
100
AcDbLine
62
7
6
CONTINUOUS
10
300.3771299559
20
221.5217839858
11
300.6771299559
21
221.5217839858
0
LINE
5
3A4
100
AcDbEntity
8
DEFAULT_2
100
AcDbLine
62
8
6
HIDDEN
10
290.3771299559
20
191.4486286517
11
289.3771299559
21
190.4486286517
0
LINE
5
3A5
100
AcDbEntity
8
0
100
AcDbLine
62
7
6
CONTINUOUS
10
300.3771299559
20
224.5009711951
11
300.6771299559
21
224.5009711951
0
LINE
5
3A6
100
AcDbEntity
8
0
100
AcDbLine
62
7
6
CONTINUOUS
10
300.3771299559
20
224.8765823858
11
300.6771299559
21
224.8765823858
0
LINE
5
3A7
100
AcDbEntity
8
0
100
AcDbLine
62
7
6
CONTINUOUS
10
300.3771299559
20
225.1067085991
11
300.6771299559
21
225.1067085991
0
LINE
5
3A8
100
AcDbEntity
8
0
100
AcDbLine
62
7
6
CONTINUOUS
10
300.3771299559
20
225.1609279064
11
300.6771299559
21
225.1609279064
0
LINE
5
3A9
100
AcDbEntity
8
0
100
AcDbLine
62
7
6
CONTINUOUS
10
307.8771299559
20
190.9486286517
11
307.8771299559
21
196.4670961408
0
LINE
5
3AA
100
AcDbEntity
8
0
100
AcDbLine
62
7
6
CONTINUOUS
10
300.3771299559
20
225.2616333306
11
300.6771299559
21
225.2616333306
0
LINE
5
3AB
100
AcDbEntity
8
0
100
AcDbLine
62
7
6
CONTINUOUS
10
300.3771299559
20
225.4214760486
11
300.6771299559
21
225.4214760486
0
LINE
5
3AC
100
AcDbEntity
8
0
100
AcDbLine
62
7
6
CONTINUOUS
10
300.3771299559
20
225.5988898598
11
300.6771299559
21
225.5988898598
0
LINE
5
3AD
100
AcDbEntity
8
0
100
AcDbLine
62
7
6
CONTINUOUS
10
300.3771299559
20
225.8530129941
11
300.6771299559
21
225.8530129941
0
LINE
5
3AE
100
AcDbEntity
8
0
100
AcDbLine
62
7
6
CONTINUOUS
10
300.3771299559
20
226.1039227756
11
300.6771299559
21
226.1039227756
0
LINE
5
3AF
100
AcDbEntity
8
0
100
AcDbLine
62
7
6
CONTINUOUS
10
300.3771299559
20
226.3132654208
11
300.6771299559
21
226.3132654208
0
LINE
5
3B0
100
AcDbEntity
8
0
100
AcDbLine
62
7
6
CONTINUOUS
10
300.3771299559
20
226.4426862681
11
300.6771299559
21
226.4426862681
0
LINE
5
3B1
100
AcDbEntity
8
0
100
AcDbLine
62
7
6
CONTINUOUS
10
300.3771299559
20
226.4953986702
11
300.6771299559
21
226.4953986702
0
LINE
5
3B2
100
AcDbEntity
8
0
100
AcDbLine
62
7
6
CONTINUOUS
10
300.3771299559
20
227.2986286517
11
300.6771299559
21
227.2986286517
0
LINE
5
3B3
100
AcDbEntity
8
0
100
AcDbLine
62
7
6
CONTINUOUS
10
300.3771299559
20
227.4828893797
11
300.6771299559
21
227.4828893797
0
LINE
5
3B4
100
AcDbEntity
8
0
100
AcDbLine
62
7
6
CONTINUOUS
10
300.3771299559
20
228.6419725815
11
300.6771299559
21
228.6419725815
0
LINE
5
3B5
100
AcDbEntity
8
0
100
AcDbLine
62
7
6
CONTINUOUS
10
300.3771299559
20
228.8060478104
11
300.6771299559
21
228.8060478104
0
LINE
5
3B6
100
AcDbEntity
8
0
100
AcDbLine
62
7
6
CONTINUOUS
10
300.3771299559
20
229.0201230379
11
300.6771299559
21
229.0201230379
0
LINE
5
3B7
100
AcDbEntity
8
0
100
AcDbLine
62
7
6
CONTINUOUS
10
300.3771299559
20
229.1604939815
11
300.6771299559
21
229.1604939815
0
LINE
5
3B8
100
AcDbEntity
8
0
100
AcDbLine
62
7
6
CONTINUOUS
10
300.3771299559
20
229.3140127846
11
300.6771299559
21
229.3140127846
0
LINE
5
3B9
100
AcDbEntity
8
0
100
AcDbLine
62
7
6
CONTINUOUS
10
300.3771299559
20
229.3806794593
11
300.6771299559
21
229.3806794593
0
LINE
5
3BA
100
AcDbEntity
8
0
100
AcDbLine
62
7
6
CONTINUOUS
10
300.3771299559
20
229.4438273188
11
300.6771299559
21
229.4438273188
0
LINE
5
3BB
100
AcDbEntity
8
0
100
AcDbLine
62
7
6
CONTINUOUS
10
300.3771299559
20
229.7640128085
11
300.6771299559
21
229.7640128085
0
LINE
5
3BC
100
AcDbEntity
8
0
100
AcDbLine
62
7
6
CONTINUOUS
10
300.3771299559
20
230.3306794593
11
300.6771299559
21
230.3306794593
0
LINE
5
3BD
100
AcDbEntity
8
0
100
AcDbLine
62
7
6
CONTINUOUS
10
300.3771299559
20
230.4666041990
11
300.6771299559
21
230.4666041990
0
LINE
5
3BE
100
AcDbEntity
8
0
100
AcDbLine
62
7
6
CONTINUOUS
10
300.3771299559
20
230.6604939219
11
300.6771299559
21
230.6604939219
0
LINE
5
3BF
100
AcDbEntity
8
0
100
AcDbLine
62
7
6
CONTINUOUS
10
300.3771299559
20
230.7973460623
11
300.6771299559
21
230.7973460623
0
LINE
5
3C0
100
AcDbEntity
8
0
100
AcDbLine
62
7
6
CONTINUOUS
10
300.3771299559
20
230.8604939219
11
300.6771299559
21
230.8604939219
0
LINE
5
3C1
100
AcDbEntity
8
0
100
AcDbLine
62
7
6
CONTINUOUS
10
300.3771299559
20
231.3743785057
11
300.6771299559
21
231.3743785057
0
LINE
5
3C2
100
AcDbEntity
8
0
100
AcDbLine
62
7
6
CONTINUOUS
10
300.3771299559
20
231.4778972493
11
300.6771299559
21
231.4778972493
0
LINE
5
3C3
100
AcDbEntity
8
0
100
AcDbLine
62
7
6
CONTINUOUS
10
300.3771299559
20
231.5778972493
11
300.6771299559
21
231.5778972493
0
LINE
5
3C4
100
AcDbEntity
8
0
100
AcDbLine
62
7
6
CONTINUOUS
10
300.3771299559
20
231.6077117119
11
300.6771299559
21
231.6077117119
0
LINE
5
3C5
100
AcDbEntity
8
0
100
AcDbLine
62
7
6
CONTINUOUS
10
300.3771299559
20
231.7278972493
11
300.6771299559
21
231.7278972493
0
LINE
5
3C6
100
AcDbEntity
8
0
100
AcDbLine
62
7
6
CONTINUOUS
10
300.3771299559
20
231.8112304555
11
300.6771299559
21
231.8112304555
0
LINE
5
3C7
100
AcDbEntity
8
0
100
AcDbLine
62
7
6
CONTINUOUS
10
300.3771299559
20
233.0711476517
11
300.6771299559
21
233.0711476517
0
LINE
5
3C8
100
AcDbEntity
8
0
100
AcDbLine
62
7
6
CONTINUOUS
10
299.3771299559
20
235.5552765574
11
291.3771299559
21
235.5552765574
0
LINE
5
3C9
100
AcDbEntity
8
0
100
AcDbLine
62
7
6
CONTINUOUS
10
307.3771299559
20
190.4486286517
11
307.8771299559
21
190.9486286517
0
LINE
5
3CA
100
AcDbEntity
8
0
100
AcDbLine
62
7
6
CONTINUOUS
10
87.9121732035
20
108.6134591334
11
87.9121732035
21
116.6134591334
0
LINE
5
3CB
100
AcDbEntity
8
0
100
AcDbLine
62
7
6
CONTINUOUS
10
90.8075589756
20
107.6134591334
11
90.8075589756
21
107.3134591334
0
LINE
5
3CC
100
AcDbEntity
8
0
100
AcDbLine
62
7
6
CONTINUOUS
10
88.2521973227
20
117.3647459207
11
88.2496153121
21
117.3624697823
0
LINE
5
3CD
100
AcDbEntity
8
0
100
AcDbLine
62
7
6
CONTINUOUS
10
88.2522317786
20
107.8621420795
11
88.2496395822
21
107.8644270158
0
LINE
5
3CE
100
AcDbEntity
8
0
100
AcDbLine
62
7
6
CONTINUOUS
10
94.2590171530
20
107.6134591334
11
94.2590171530
21
107.3134591334
0
LINE
5
3CF
100
AcDbEntity
8
0
100
AcDbLine
62
7
6
CONTINUOUS
10
94.3566999351
20
107.6134591334
11
94.3566999351
21
107.3134591334
0
LINE
5
3D0
100
AcDbEntity
8
0
100
AcDbLine
62
7
6
CONTINUOUS
10
94.7312724756
20
107.6134591334
11
94.7312724756
21
107.3134591334
0
LINE
5
3D1
100
AcDbEntity
8
0
100
AcDbLine
62
7
6
CONTINUOUS
10
94.7799922394
20
107.6134591334
11
94.7799922394
21
107.3134591334
0
LINE
5
3D2
100
AcDbEntity
8
0
100
AcDbLine
62
7
6
CONTINUOUS
10
94.9266380398
20
107.6134591334
11
94.9266380398
21
107.3134591334
0
LINE
5
3D3
100
AcDbEntity
8
0
100
AcDbLine
62
7
6
CONTINUOUS
10
95.1549292889
20
107.6134591334
11
95.1549292889
21
107.3134591334
0
LINE
5
3D4
100
AcDbEntity
8
0
100
AcDbLine
62
7
6
CONTINUOUS
10
95.3506597348
20
107.6134591334
11
95.3506597348
21
107.3134591334
0
LINE
5
3D5
100
AcDbEntity
8
0
100
AcDbLine
62
7
6
CONTINUOUS
10
95.5790726111
20
107.6134591334
11
95.5790726111
21
107.3134591334
0
LINE
5
3D6
100
AcDbEntity
8
0
100
AcDbLine
62
7
6
CONTINUOUS
10
95.7422423910
20
107.6134591334
11
95.7422423910
21
107.3134591334
0
LINE
5
3D7
100
AcDbEntity
8
0
100
AcDbLine
62
7
6
CONTINUOUS
10
96.0033380703
20
107.6134591334
11
96.0033380703
21
107.3134591334
0
LINE
5
3D8
100
AcDbEntity
8
0
100
AcDbLine
62
7
6
CONTINUOUS
10
96.4440052349
20
107.6134591334
11
96.4440052349
21
107.3134591334
0
LINE
5
3D9
100
AcDbEntity
8
0
100
AcDbLine
62
7
6
CONTINUOUS
10
96.6725398070
20
107.6134591334
11
96.6725398070
21
107.3134591334
0
LINE
5
3DA
100
AcDbEntity
8
0
100
AcDbLine
62
7
6
CONTINUOUS
10
96.8031482739
20
107.6134591334
11
96.8031482739
21
107.3134591334
0
LINE
5
3DB
100
AcDbEntity
8
0
100
AcDbLine
62
7
6
CONTINUOUS
10
96.9664395782
20
107.6134591334
11
96.9664395782
21
107.3134591334
0
LINE
5
3DC
100
AcDbEntity
8
0
100
AcDbLine
62
7
6
CONTINUOUS
10
97.0644872591
20
107.6134591334
11
97.0644872591
21
107.3134591334
0
LINE
5
3DD
100
AcDbEntity
8
0
100
AcDbLine
62
7
6
CONTINUOUS
10
97.1299741326
20
107.6134591334
11
97.1299741326
21
107.3134591334
0
LINE
5
3DE
100
AcDbEntity
8
0
100
AcDbLine
62
7
6
CONTINUOUS
10
99.8754922903
20
107.6134591334
11
99.8754922903
21
107.3134591334
0
LINE
5
3DF
100
AcDbEntity
8
0
100
AcDbLine
62
7
6
CONTINUOUS
10
99.9058559696
20
107.6134591334
11
99.9058559696
21
107.3134591334
0
LINE
5
3E0
100
AcDbEntity
8
0
100
AcDbLine
62
7
6
CONTINUOUS
10
99.9787728301
20
107.6134591334
11
99.9787728301
21
107.3134591334
0
LINE
5
3E1
100
AcDbEntity
8
0
100
AcDbLine
62
7
6
CONTINUOUS
10
100.1595688243
20
107.6134591334
11
100.1595688243
21
107.3134591334
0
LINE
5
3E2
100
AcDbEntity
8
0
100
AcDbLine
62
7
6
CONTINUOUS
10
100.2750388919
20
107.6134591334
11
100.2750388919
21
107.3134591334
0
LINE
5
3E3
100
AcDbEntity
8
0
100
AcDbLine
62
7
6
CONTINUOUS
10
100.4695205658
20
107.6134591334
11
100.4695205658
21
107.3134591334
0
LINE
5
3E4
100
AcDbEntity
8
0
100
AcDbLine
62
7
6
CONTINUOUS
10
100.6275437786
20
107.6134591334
11
100.6275437786
21
107.3134591334
0
LINE
5
3E5
100
AcDbEntity
8
0
100
AcDbLine
62
7
6
CONTINUOUS
10
100.8281202603
20
107.6134591334
11
100.8281202603
21
107.3134591334
0
LINE
5
3E6
100
AcDbEntity
8
0
100
AcDbLine
62
7
6
CONTINUOUS
10
100.9389917290
20
107.6134591334
11
100.9389917290
21
107.3134591334
0
LINE
5
3E7
100
AcDbEntity
8
0
100
AcDbLine
62
7
6
CONTINUOUS
10
101.9204871591
20
107.6134591334
11
101.9204871591
21
107.3134591334
0
LINE
5
3E8
100
AcDbEntity
8
0
100
AcDbLine
62
7
6
CONTINUOUS
10
102.0268701251
20
107.6134591334
11
102.0268701251
21
107.3134591334
0
LINE
5
3E9
100
AcDbEntity
8
0
100
AcDbLine
62
7
6
CONTINUOUS
10
102.0725258438
20
107.6134591334
11
102.0725258438
21
107.3134591334
0
LINE
5
3EA
100
AcDbEntity
8
0
100
AcDbLine
62
7
6
CONTINUOUS
10
102.2806931357
20
107.6134591334
11
102.2806931357
21
107.3134591334
0
LINE
5
3EB
100
AcDbEntity
8
0
100
AcDbLine
62
7
6
CONTINUOUS
10
102.4524020489
20
107.6134591334
11
102.4524020489
21
107.3134591334
0
LINE
5
3EC
100
AcDbEntity
8
0
100
AcDbLine
62
7
6
CONTINUOUS
10
102.4735684449
20
107.6134591334
11
102.4735684449
21
107.3134591334
0
LINE
5
3ED
100
AcDbEntity
8
0
100
AcDbLine
62
7
6
CONTINUOUS
10
102.4963412056
20
107.6134591334
11
102.4963412056
21
107.3134591334
0
LINE
5
3EE
100
AcDbEntity
8
0
100
AcDbLine
62
7
6
CONTINUOUS
10
133.2642745864
20
107.6060911571
11
127.0209561020
21
106.2321304337
0
LINE
5
3EF
100
AcDbEntity
8
0
100
AcDbLine
62
7
6
CONTINUOUS
10
95.0166861164
20
106.2321304337
11
88.7733676344
21
107.6060911566
0
LINE
5
3F0
100
AcDbEntity
8
0
100
AcDbLine
62
7
6
CONTINUOUS
10
102.5768489382
20
107.6134591334
11
102.5768489382
21
107.3134591334
0
LINE
5
3F1
100
AcDbEntity
8
0
100
AcDbLine
62
7
6
CONTINUOUS
10
102.7287774258
20
107.6134591334
11
102.7287774258
21
107.3134591334
0
LINE
5
3F2
100
AcDbEntity
8
0
100
AcDbLine
62
7
6
CONTINUOUS
10
102.9232590998
20
107.6134591334
11
102.9232590998
21
107.3134591334
0
LINE
5
3F3
100
AcDbEntity
8
0
100
AcDbLine
62
7
6
CONTINUOUS
10
103.1314265568
20
107.6134591334
11
103.1314265568
21
107.3134591334
0
LINE
5
3F4
100
AcDbEntity
8
0
100
AcDbLine
62
7
6
CONTINUOUS
10
103.2818588768
20
107.6134591334
11
103.2818588768
21
107.3134591334
0
LINE
5
3F5
100
AcDbEntity
8
0
100
AcDbLine
62
7
6
CONTINUOUS
10
103.4247003867
20
107.6134591334
11
103.4247003867
21
107.3134591334
0
LINE
5
3F6
100
AcDbEntity
8
0
100
AcDbLine
62
7
6
CONTINUOUS
10
122.0868057752
20
106.0377967533
11
122.0868768485
21
106.0378046227
0
LINE
5
3F7
100
AcDbEntity
8
0
100
AcDbLine
62
7
6
CONTINUOUS
10
99.9507640721
20
106.0378047037
11
99.9508351264
21
106.0377968365
0
LINE
5
3F8
100
AcDbEntity
8
0
100
AcDbLine
62
7
6
CONTINUOUS
10
105.0231070244
20
107.6134591334
11
105.0231070244
21
107.3134591334
0
LINE
5
3F9
100
AcDbEntity
8
0
100
AcDbLine
62
7
6
CONTINUOUS
10
105.0458797852
20
107.6134591334
11
105.0458797852
21
107.3134591334
0
LINE
5
3FA
100
AcDbEntity
8
0
100
AcDbLine
62
7
6
CONTINUOUS
10
105.0899291391
20
107.6134591334
11
105.0899291391
21
107.3134591334
0
LINE
5
3FB
100
AcDbEntity
8
0
100
AcDbLine
62
7
6
CONTINUOUS
10
105.1841224896
20
107.6134591334
11
105.1841224896
21
107.3134591334
0
LINE
5
3FC
100
AcDbEntity
8
0
100
AcDbLine
62
7
6
CONTINUOUS
10
105.3573275704
20
107.6134591334
11
105.3573275704
21
107.3134591334
0
LINE
5
3FD
100
AcDbEntity
8
0
100
AcDbLine
62
7
6
CONTINUOUS
10
105.4940741073
20
107.6134591334
11
105.4940741073
21
107.3134591334
0
LINE
5
3FE
100
AcDbEntity
8
0
100
AcDbLine
62
7
6
CONTINUOUS
10
105.5730858376
20
107.6134591334
11
105.5730858376
21
107.3134591334
0
LINE
5
3FF
100
AcDbEntity
8
0
100
AcDbLine
62
7
6
CONTINUOUS
10
105.6171351915
20
107.6134591334
11
105.6171351915
21
107.3134591334
0
LINE
5
400
100
AcDbEntity
8
0
100
AcDbLine
62
7
6
CONTINUOUS
10
105.7614725386
20
107.6134591334
11
105.7614725386
21
107.3134591334
0
LINE
5
401
100
AcDbEntity
8
0
100
AcDbLine
62
7
6
CONTINUOUS
10
126.8060300630
20
106.2087607618
11
126.0783441681
21
106.2087607618
0
LINE
5
402
100
AcDbEntity
8
0
100
AcDbLine
62
7
6
CONTINUOUS
10
95.9592980254
20
106.2087607618
11
95.2316121554
21
106.2087607618
0
LINE
5
403
100
AcDbEntity
8
0
100
AcDbLine
62
7
6
CONTINUOUS
10
114.0576120990
20
107.3134591334
11
112.2025996092
21
107.3134591334
0
LINE
5
404
100
AcDbEntity
8
0
100
AcDbLine
62
7
6
CONTINUOUS
10
111.8315971643
20
107.3134591334
11
110.1620856317
21
107.3134591334
0
LINE
5
405
100
AcDbEntity
8
0
100
AcDbLine
62
7
6
CONTINUOUS
10
109.7910831868
20
107.3134591334
11
108.0288211092
21
107.3134591334
0
LINE
5
406
100
AcDbEntity
8
0
100
AcDbLine
62
7
6
CONTINUOUS
10
106.5821731158
20
107.3134591334
11
99.8754922903
21
107.3134591334
0
LINE
5
407
100
AcDbEntity
8
0
100
AcDbLine
62
7
6
CONTINUOUS
10
97.1299741326
20
107.3134591334
11
90.8075589756
21
107.3134591334
0
LINE
5
408
100
AcDbEntity
8
0
100
AcDbLine
62
7
6
CONTINUOUS
10
106.4848767710
20
107.6134591334
11
106.4848767710
21
107.3134591334
0
LINE
5
409
100
AcDbEntity
8
0
100
AcDbLine
62
7
6
CONTINUOUS
10
106.5760781429
20
107.6134591334
11
106.5760781429
21
107.3134591334
0
LINE
5
40A
100
AcDbEntity
8
0
100
AcDbLine
62
7
6
CONTINUOUS
10
106.5821731158
20
107.6134591334
11
106.5821731158
21
107.3134591334
0
LINE
5
40B
100
AcDbEntity
8
0
100
AcDbLine
62
7
6
CONTINUOUS
10
89.0179329781
20
107.6134591334
11
133.0197092403
21
107.6134591334
0
LINE
5
40C
100
AcDbEntity
8
0
100
AcDbLine
62
7
6
CONTINUOUS
10
108.0288211092
20
107.6134591334
11
108.0288211092
21
107.3134591334
0
LINE
5
40D
100
AcDbEntity
8
0
100
AcDbLine
62
7
6
CONTINUOUS
10
109.7910831868
20
107.6134591334
11
109.7910831868
21
107.3134591334
0
LINE
5
40E
100
AcDbEntity
8
0
100
AcDbLine
62
7
6
CONTINUOUS
10
110.1620856317
20
107.6134591334
11
110.1620856317
21
107.3134591334
0
LINE
5
40F
100
AcDbEntity
8
DEFAULT_1
100
AcDbLine
62
2
6
CENTER
10
111.0188211092
20
112.6134591334
11
111.0188211092
21
97.1134591334
0
LINE
5
410
100
AcDbEntity
8
DEFAULT_1
100
AcDbLine
62
2
6
CENTER
10
111.0188211092
20
112.6134591334
11
111.0188211092
21
128.1134591334
0
LINE
5
411
100
AcDbEntity
8
DEFAULT_1
100
AcDbLine
62
2
6
CENTER
10
111.0188211092
20
112.6134591334
11
95.5188211092
21
112.6134591334
0
LINE
5
412
100
AcDbEntity
8
DEFAULT_1
100
AcDbLine
62
2
6
CENTER
10
111.0188211092
20
112.6134591334
11
126.5188211092
21
112.6134591334
0
LINE
5
413
100
AcDbEntity
8
0
100
AcDbLine
62
7
6
CONTINUOUS
10
111.8315971643
20
107.6134591334
11
111.8315971643
21
107.3134591334
0
LINE
5
414
100
AcDbEntity
8
0
100
AcDbLine
62
7
6
CONTINUOUS
10
112.2025996092
20
107.6134591334
11
112.2025996092
21
107.3134591334
0
LINE
5
415
100
AcDbEntity
8
0
100
AcDbLine
62
7
6
CONTINUOUS
10
114.0112369592
20
107.6134591334
11
114.0112369592
21
107.3134591334
0
LINE
5
416
100
AcDbEntity
8
0
100
AcDbLine
62
7
6
CONTINUOUS
10
114.0576120990
20
107.6134591334
11
114.0576120990
21
107.3134591334
0
LINE
5
417
100
AcDbEntity
8
0
100
AcDbLine
62
7
6
CONTINUOUS
10
133.0197092403
20
117.6134591334
11
89.0179329781
21
117.6134591334
0
LINE
5
418
100
AcDbEntity
8
0
100
AcDbLine
62
7
6
CONTINUOUS
10
95.2316121554
20
119.0181575050
11
95.9592980503
21
119.0181575050
0
LINE
5
419
100
AcDbEntity
8
0
100
AcDbLine
62
7
6
CONTINUOUS
10
126.0783441930
20
119.0181575050
11
126.8060300630
21
119.0181575050
0
LINE
5
41A
100
AcDbEntity
8
0
100
AcDbLine
62
7
6
CONTINUOUS
10
99.9508364432
20
119.1891215136
11
99.9507653699
21
119.1891136442
0
LINE
5
41B
100
AcDbEntity
8
0
100
AcDbLine
62
7
6
CONTINUOUS
10
122.0868781463
20
119.1891135632
11
122.0868070920
21
119.1891214304
0
LINE
5
41C
100
AcDbEntity
8
0
100
AcDbLine
62
7
6
CONTINUOUS
10
88.7733676320
20
117.6208271098
11
95.0166861164
21
118.9947878331
0
LINE
5
41D
100
AcDbEntity
8
0
100
AcDbLine
62
7
6
CONTINUOUS
10
127.0209561020
20
118.9947878331
11
133.2642745843
21
117.6208271102
0
LINE
5
41E
100
AcDbEntity
8
0
100
AcDbLine
62
7
6
CONTINUOUS
10
133.7879681062
20
107.8643964737
11
133.7853931064
21
107.8621268546
0
LINE
5
41F
100
AcDbEntity
8
0
100
AcDbLine
62
7
6
CONTINUOUS
10
133.7879674187
20
117.3625224012
11
133.7854689157
21
117.3647248194
0
LINE
5
420
100
AcDbEntity
8
0
100
AcDbLine
62
7
6
CONTINUOUS
10
134.1254690149
20
108.6134591334
11
134.1254690149
21
116.6134591334
0
ARC
5
421
100
AcDbEntity
8
0
100
AcDbCircle
62
7
6
CONTINUOUS
10
95.2336513102
20
196.9883181048
40
1.0000000000
100
AcDbArc
50
202.5000000000
51
267.2633278853
0
ARC
5
422
100
AcDbEntity
8
0
100
AcDbCircle
62
7
6
CONTINUOUS
10
126.8039909082
20
196.9883181048
40
1.0000000000
100
AcDbArc
50
272.7366721147
51
337.5000000000
0
ARC
5
423
100
AcDbEntity
8
0
100
AcDbCircle
62
7
6
CONTINUOUS
10
95.0188211092
20
192.4932410600
40
3.5000000000
100
AcDbArc
50
0.0000000000
51
87.5653403274
0
ARC
5
424
100
AcDbEntity
8
0
100
AcDbCircle
62
7
6
CONTINUOUS
10
127.0188211092
20
192.4932410600
40
3.5000000000
100
AcDbArc
50
92.4346596726
51
180.0000000000
0
ARC
5
425
100
AcDbEntity
8
0
100
AcDbCircle
62
7
6
CONTINUOUS
10
125.9434749715
20
227.3732825139
40
2.0000000000
100
AcDbArc
50
22.5000000000
51
67.5000000000
0
ARC
5
426
100
AcDbEntity
8
0
100
AcDbCircle
62
7
6
CONTINUOUS
10
111.0188211092
20
233.5552765574
40
2.0000000000
100
AcDbArc
50
67.5000000000
51
112.5000000000
0
ARC
5
427
100
AcDbEntity
8
0
100
AcDbCircle
62
7
6
CONTINUOUS
10
96.0941672470
20
227.3732825139
40
2.0000000000
100
AcDbArc
50
112.5000000000
51
157.5000000000
0
ARC
5
428
100
AcDbEntity
8
0
100
AcDbCircle
62
7
6
CONTINUOUS
10
89.9121732035
20
212.4486286517
40
2.0000000000
100
AcDbArc
50
157.5000000000
51
202.5000000000
0
ARC
5
429
100
AcDbEntity
8
0
100
AcDbCircle
62
7
6
CONTINUOUS
10
132.1254690149
20
212.4486286517
40
2.0000000000
100
AcDbArc
50
337.5000000000
51
22.5000000000
0
CIRCLE
5
42A
100
AcDbEntity
8
0
100
AcDbCircle
62
7
6
CONTINUOUS
10
111.0188211092
20
212.4486286517
40
12.5000000000
0
ARC
5
42B
100
AcDbEntity
8
0
100
AcDbCircle
62
7
6
CONTINUOUS
10
95.2316121554
20
196.9932410600
40
1.0000000000
100
AcDbArc
50
202.5000000000
51
270.0000000000
0
ARC
5
42C
100
AcDbEntity
8
0
100
AcDbCircle
62
7
6
CONTINUOUS
10
126.8060300630
20
196.9932410600
40
1.0000000000
100
AcDbArc
50
270.0000000000
51
337.5000000000
0
ARC
5
42D
100
AcDbEntity
8
DEFAULT_2
100
AcDbCircle
62
8
6
HIDDEN
10
295.3771299559
20
229.9486286517
40
5.0000000000
100
AcDbArc
50
180.0000000000
51
360.0000000000
0
ARC
5
42E
100
AcDbEntity
8
0
100
AcDbCircle
62
7
6
CONTINUOUS
10
302.4896717663
20
199.6139644628
40
0.9999995594
100
AcDbArc
50
215.0160785335
51
261.0000000008
0
ARC
5
42F
100
AcDbEntity
8
0
100
AcDbCircle
62
7
6
CONTINUOUS
10
291.3771299559
20
234.5552765574
40
1.0000000000
100
AcDbArc
50
90.0000000000
51
180.0000000000
0
ARC
5
430
100
AcDbEntity
8
0
100
AcDbCircle
62
7
6
CONTINUOUS
10
299.3771299559
20
234.5552765574
40
1.0000000000
100
AcDbArc
50
0.0000000000
51
90.0000000000
0
ARC
5
431
100
AcDbEntity
8
0
100
AcDbCircle
62
7
6
CONTINUOUS
10
284.3771299559
20
196.4670961408
40
1.5000000000
100
AcDbArc
50
99.0000000000
51
180.0000000000
0
ARC
5
432
100
AcDbEntity
8
0
100
AcDbCircle
62
7
6
CONTINUOUS
10
306.3771299559
20
196.4670961408
40
1.5000000000
100
AcDbArc
50
0.0000000000
51
81.0000000000
0
ARC
5
433
100
AcDbEntity
8
0
100
AcDbCircle
62
7
6
CONTINUOUS
10
310.3771299559
20
212.9034635409
40
10.0000000000
100
AcDbArc
50
180.0000000000
51
185.2084342387
0
ARC
5
434
100
AcDbEntity
8
0
100
AcDbCircle
62
7
6
CONTINUOUS
10
280.3771299559
20
212.9033588455
40
9.9999913599
100
AcDbArc
50
354.7921631451
51
0.0005998602
0
ARC
5
435
100
AcDbEntity
8
0
100
AcDbCircle
62
7
6
CONTINUOUS
10
289.9724315843
20
196.9932410600
40
1.0000000000
100
AcDbArc
50
174.7915657612
51
270.0000000000
0
ARC
5
436
100
AcDbEntity
8
0
100
AcDbCircle
62
7
6
CONTINUOUS
10
300.7818283275
20
196.9932410600
40
1.0000000000
100
AcDbArc
50
270.0000000000
51
5.2084342388
0
CIRCLE
5
437
100
AcDbEntity
8
DEFAULT_2
100
AcDbCircle
62
8
6
HIDDEN
10
111.0188211092
20
112.6134591334
40
5.0000000000
0
ARC
5
438
100
AcDbEntity
8
0
100
AcDbCircle
62
7
6
CONTINUOUS
10
133.1254690149
20
116.6134591334
40
1.0000000000
100
AcDbArc
50
0.0000000000
51
48.4027836255
0
ARC
5
439
100
AcDbEntity
8
0
100
AcDbCircle
62
7
6
CONTINUOUS
10
88.9121732035
20
116.6134591334
40
1.0000000000
100
AcDbArc
50
131.6044424929
51
180.0000000000
0
ARC
5
43A
100
AcDbEntity
8
0
100
AcDbCircle
62
7
6
CONTINUOUS
10
88.9121732035
20
108.6134591334
40
1.0000000000
100
AcDbArc
50
180.0000000000
51
228.3983962662
0
ARC
5
43B
100
AcDbEntity
8
0
100
AcDbCircle
62
7
6
CONTINUOUS
10
133.1254690149
20
108.6134591334
40
1.0000000000
100
AcDbArc
50
311.5969900693
51
360.0000000000
0
ARC
5
43C
100
AcDbEntity
8
0
100
AcDbCircle
62
7
6
CONTINUOUS
10
111.0188211092
20
112.6134591334
40
12.5000000000
100
AcDbArc
50
213.5499037529
51
326.4500962471
0
ARC
5
43D
100
AcDbEntity
8
0
100
AcDbCircle
62
7
6
CONTINUOUS
10
111.0188211092
20
112.6134591334
40
12.5000000000
100
AcDbArc
50
33.5499037529
51
146.4500962471
0
SPLINE
5
43E
100
AcDbEntity
8
0
100
AcDbSpline
62
7
6
CONTINUOUS
70
0
71
3
72
20
73
16
74
14
42
0.0000001000
43
0.0000001000
44
0.0000000001
40
0.0000000000
40
0.0000000000
40
0.0000000000
40
0.0000000000
40
0.1273110132
40
0.2505898288
40
0.3610128740
40
0.4588917637
40
0.5465832960
40
0.6255924239
40
0.6965574686
40
0.7602271303
40
0.8174631332
40
0.8691679683
40
0.9162394585
40
0.9595500714
40
1.0000000000
40
1.0000000000
40
1.0000000000
40
1.0000000000
10
126.0783441930
20
195.9932410600
30
0.0000000000
10
125.8228360578
20
195.9932268386
30
0.0000000000
10
125.3188662250
20
195.9472900573
30
0.0000000000
10
124.6158136996
20
195.7600177969
30
0.0000000000
10
124.0038589092
20
195.4928810592
30
0.0000000000
10
123.4944090258
20
195.1843588493
30
0.0000000000
10
123.0754117365
20
194.8562607937
30
0.0000000000
10
122.7343014572
20
194.5215124518
30
0.0000000000
10
122.4613860680
20
194.1898028510
30
0.0000000000
10
122.2480582225
20
193.8684350059
30
0.0000000000
10
122.0857551969
20
193.5617612439
30
0.0000000000
10
121.9664207643
20
193.2717771393
30
0.0000000000
10
121.8828788495
20
192.9987011759
30
0.0000000000
10
121.8290298536
20
192.7413689581
30
0.0000000000
10
121.8091489527
20
192.5741970899
30
0.0000000000
10
121.8031040895
20
192.4932410600
30
0.0000000000
11
126.0783441930
21
195.9932410600
31
0.0000000000
11
125.3148763861
21
195.9248555793
31
0.0000000000
11
124.5974028487
21
195.7346915127
31
0.0000000000
11
123.9879906530
21
195.4689204125
31
0.0000000000
11
123.4839745490
21
195.1635314494
31
0.0000000000
11
123.0685067584
21
194.8377252908
31
0.0000000000
11
122.7293252136
21
194.5041826796
31
0.0000000000
11
122.4582610302
21
194.1739015545
31
0.0000000000
11
122.2466568319
21
193.8542471869
31
0.0000000000
11
122.0858282036
21
193.5494669557
31
0.0000000000
11
121.9676656110
21
193.2614553771
31
0.0000000000
11
121.8849914300
21
192.9903700766
31
0.0000000000
11
121.8317543986
21
192.7350941810
31
0.0000000000
11
121.8031040895
21
192.4932410600
31
0.0000000000
0
SPLINE
5
43F
100
AcDbEntity
8
0
100
AcDbSpline
62
7
6
CONTINUOUS
70
0
71
3
72
21
73
17
74
15
42
0.0000001000
43
0.0000001000
44
0.0000000001
40
0.0000000000
40
0.0000000000
40
0.0000000000
40
0.0000000000
40
0.0374628995
40
0.0773467090
40
0.1203653620
40
0.1672184263
40
0.2186201834
40
0.2752948572
40
0.3379502494
40
0.4072301499
40
0.4836534777
40
0.5679395687
40
0.6615594387
40
0.7662855349
40
0.8816375527
40
1.0000000000
40
1.0000000000
40
1.0000000000
40
1.0000000000
10
100.2345391318
20
192.4932410600
30
0.0000000000
10
100.2289401214
20
192.5682260156
30
0.0000000000
10
100.2110822769
20
192.7226386059
30
0.0000000000
10
100.1638569278
20
192.9598353751
30
0.0000000000
10
100.0917340352
20
193.2104178016
30
0.0000000000
10
99.9900013632
20
193.4754824821
30
0.0000000000
10
99.8531127959
20
193.7551655892
30
0.0000000000
10
99.6748107933
20
194.0483814441
30
0.0000000000
10
99.4483449632
20
194.3524550923
30
0.0000000000
10
99.1668337518
20
194.6626419092
30
0.0000000000
10
98.8232163664
20
194.9721203688
30
0.0000000000
10
98.4090619620
20
195.2722940814
30
0.0000000000
10
97.9136246690
20
195.5513608521
30
0.0000000000
10
97.3285826767
20
195.7892814454
30
0.0000000000
10
96.6668204693
20
195.9534132204
30
0.0000000000
10
96.1968693408
20
195.9932277940
30
0.0000000000
10
95.9592980254
20
195.9932410600
30
0.0000000000
11
100.2345391318
21
192.4932410600
31
0.0000000000
11
100.2087113265
21
192.7173387103
31
0.0000000000
11
100.1619499275
21
192.9529007501
31
0.0000000000
11
100.0904826559
21
193.2018815967
31
0.0000000000
11
99.9896253008
21
193.4653611682
31
0.0000000000
11
99.8538409815
21
193.7434997820
31
0.0000000000
11
99.6768476633
21
194.0352778066
31
0.0000000000
11
99.4518245583
21
194.3381014726
31
0.0000000000
11
99.1717755558
21
194.6472935887
31
0.0000000000
11
98.8300808589
21
194.9555303565
31
0.0000000000
11
98.4192888066
21
195.2535761114
31
0.0000000000
11
97.9281421331
21
195.5302778208
31
0.0000000000
11
97.3438976397
21
195.7675938312
31
0.0000000000
11
96.6695491032
21
195.9340415910
31
0.0000000000
11
95.9592980254
21
195.9932410600
31
0.0000000000
0
SPLINE
5
440
100
AcDbEntity
8
0
100
AcDbSpline
62
7
6
CONTINUOUS
70
0
71
3
72
26
73
22
74
20
42
0.0000001000
43
0.0000001000
44
0.0000000001
40
0.0000000000
40
0.0000000000
40
0.0000000000
40
0.0000000000
40
0.0555547948
40
0.1503973472
40
0.2350067330
40
0.3101740991
40
0.3768410629
40
0.4360039851
40
0.4885480646
40
0.5347249324
40
0.5752765190
40
0.6109238358
40
0.6422047557
40
0.6694360702
40
0.6942612206
40
0.7216711012
40
0.7531466993
40
0.7904959073
40
0.8371404429
40
0.9004521208
40
1.0000000000
40
1.0000000000
40
1.0000000000
40
1.0000000000
10
289.1821837047
20
199.3397583932
30
0.0000000000
10
289.1813879850
20
199.3310295517
30
0.0000000000
10
289.1788008483
20
199.3074367354
30
0.0000000000
10
289.1729250305
20
199.2708126036
30
0.0000000000
10
289.1641678404
20
199.2315929253
30
0.0000000000
10
289.1544723910
20
199.1971986752
30
0.0000000000
10
289.1443532812
20
199.1671397067
30
0.0000000000
10
289.1341749024
20
199.1408999018
30
0.0000000000
10
289.1242211485
20
199.1180646552
30
0.0000000000
10
289.1147014989
20
199.0982610641
30
0.0000000000
10
289.1057624840
20
199.0811488731
30
0.0000000000
10
289.0974671448
20
199.0663609072
30
0.0000000000
10
289.0898574008
20
199.0536042920
30
0.0000000000
10
289.0828582554
20
199.0424759226
30
0.0000000000
10
289.0759577664
20
199.0320105691
30
0.0000000000
10
289.0684671917
20
199.0211355381
30
0.0000000000
10
289.0596006219
20
199.0088131471
30
0.0000000000
10
289.0486406532
20
198.9942640725
30
0.0000000000
10
289.0342100512
20
198.9760496956
30
0.0000000000
10
289.0129298964
20
198.9507591437
30
0.0000000000
10
288.9955914906
20
198.9317906515
30
0.0000000000
10
288.9847197865
20
198.9204570966
30
0.0000000000
11
289.1821837047
21
199.3397583932
31
0.0000000000
11
289.1793165958
21
199.3136208770
31
0.0000000000
11
289.1721984697
21
199.2693085786
31
0.0000000000
11
289.1634657136
21
199.2302346022
31
0.0000000000
11
289.1538085355
21
199.1960007599
31
0.0000000000
11
289.1437382224
21
199.1661037941
31
0.0000000000
11
289.1336097528
21
199.1400037036
31
0.0000000000
11
289.1236712859
21
199.1172119861
31
0.0000000000
11
289.1142016150
21
199.0975192090
31
0.0000000000
11
289.1053150163
21
199.0805115394
31
0.0000000000
11
289.0970610884
21
199.0658001955
31
0.0000000000
11
289.0894771415
21
199.0530881790
31
0.0000000000
11
289.0826155781
21
199.0421808078
31
0.0000000000
11
289.0761509892
21
199.0323720054
31
0.0000000000
11
289.0687971492
21
199.0216875445
31
0.0000000000
11
289.0601017424
21
199.0095946828
31
0.0000000000
11
289.0494723286
21
198.9954742915
31
0.0000000000
11
289.0357713946
21
198.9781686530
31
0.0000000000
11
289.0164902350
21
198.9552379173
31
0.0000000000
11
288.9847197865
21
198.9204570966
31
0.0000000000
0
SPLINE
5
441
100
AcDbEntity
8
0
100
AcDbSpline
62
7
6
CONTINUOUS
70
0
71
3
72
12
73
8
74
6
42
0.0000001000
43
0.0000001000
44
0.0000000001
40
0.0000000000
40
0.0000000000
40
0.0000000000
40
0.0000000000
40
0.1331558614
40
0.3330892464
40
0.5710865522
40
0.8451483718
40
1.0000000000
40
1.0000000000
40
1.0000000000
40
1.0000000000
10
288.9847197865
20
198.9204570966
30
0.0000000000
10
288.9648554855
20
198.8997489224
30
0.0000000000
10
288.9128800025
20
198.8501265648
30
0.0000000000
10
288.8149380519
20
198.7750598476
30
0.0000000000
10
288.6806567165
20
198.6996024426
30
0.0000000000
10
288.5448276292
20
198.6505870636
30
0.0000000000
10
288.4540390110
20
198.6315191580
30
0.0000000000
10
288.4210154237
20
198.6262879559
30
0.0000000000
11
288.9847197865
21
198.9204570966
31
0.0000000000
11
288.9224770537
21
198.8610079924
31
0.0000000000
11
288.8199053590
21
198.7823875486
31
0.0000000000
11
288.6857914883
21
198.7070179325
31
0.0000000000
11
288.5191468963
21
198.6469109346
31
0.0000000000
11
288.4210154237
21
198.6262879559
31
0.0000000000
0
SPLINE
5
442
100
AcDbEntity
8
0
100
AcDbSpline
62
7
6
CONTINUOUS
70
0
71
3
72
8
73
4
74
2
42
0.0000001000
43
0.0000001000
44
0.0000000001
40
0.0000000000
40
0.0000000000
40
0.0000000000
40
0.0000000000
40
1.0000000000
40
1.0000000000
40
1.0000000000
40
1.0000000000
10
301.6672015931
20
199.0453984124
30
0.0000000000
10
301.6649742270
20
199.0487993858
30
0.0000000000
10
301.6627903528
20
199.0522281607
30
0.0000000000
10
301.6606492466
20
199.0556833791
30
0.0000000000
11
301.6672015931
21
199.0453984124
31
0.0000000000
11
301.6606492466
21
199.0556833791
31
0.0000000000
0
SPLINE
5
443
100
AcDbEntity
8
0
100
AcDbSpline
62
7
6
CONTINUOUS
70
0
71
3
72
9
73
5
74
3
42
0.0000001000
43
0.0000001000
44
0.0000000001
40
0.0000000000
40
0.0000000000
40
0.0000000000
40
0.0000000000
40
0.0179710309
40
1.0000000000
40
1.0000000000
40
1.0000000000
40
1.0000000000
10
301.6606492466
20
199.0556833791
30
0.0000000000
10
301.6606132586
20
199.0557414548
30
0.0000000000
10
301.6586113762
20
199.0589735009
30
0.0000000000
10
301.6566468952
20
199.0622286588
30
0.0000000000
10
301.6547532261
20
199.0654465546
30
0.0000000000
11
301.6606492466
21
199.0556833791
31
0.0000000000
11
301.6605413189
21
199.0558576287
31
0.0000000000
11
301.6547532261
21
199.0654465546
31
0.0000000000
0
SPLINE
5
444
100
AcDbEntity
8
0
100
AcDbSpline
62
7
6
CONTINUOUS
70
0
71
3
72
8
73
4
74
2
42
0.0000001000
43
0.0000001000
44
0.0000000001
40
0.0000000000
40
0.0000000000
40
0.0000000000
40
0.0000000000
40
1.0000000000
40
1.0000000000
40
1.0000000000
40
1.0000000000
10
301.6299266509
20
199.1130273261
30
0.0000000000
10
301.6242484754
20
199.1253419285
30
0.0000000000
10
301.6190015837
20
199.1378693582
30
0.0000000000
10
301.6141592552
20
199.1505594915
30
0.0000000000
11
301.6299266509
21
199.1130273261
31
0.0000000000
11
301.6141592552
21
199.1505594915
31
0.0000000000
0
SPLINE
5
445
100
AcDbEntity
8
0
100
AcDbSpline
62
7
6
CONTINUOUS
70
0
71
3
72
8
73
4
74
2
42
0.0000001000
43
0.0000001000
44
0.0000000001
40
0.0000000000
40
0.0000000000
40
0.0000000000
40
0.0000000000
40
1.0000000000
40
1.0000000000
40
1.0000000000
40
1.0000000000
10
301.6141592552
20
199.1505594915
30
0.0000000000
10
301.6093222835
20
199.1632355863
30
0.0000000000
10
301.6048885350
20
199.1760736892
30
0.0000000000
10
301.6008551600
20
199.1890417697
30
0.0000000000
11
301.6141592552
21
199.1505594915
31
0.0000000000
11
301.6008551600
21
199.1890417697
31
0.0000000000
0
SPLINE
5
446
100
AcDbEntity
8
0
100
AcDbSpline
62
7
6
CONTINUOUS
70
0
71
3
72
10
73
6
74
4
42
0.0000001000
43
0.0000001000
44
0.0000000001
40
0.0000000000
40
0.0000000000
40
0.0000000000
40
0.0000000000
40
0.0695723006
40
0.4673883056
40
1.0000000000
40
1.0000000000
40
1.0000000000
40
1.0000000000
10
301.6706822637
20
199.0401592621
30
0.0000000000
10
301.6672560598
20
199.0452430907
30
0.0000000000
10
301.6449091989
20
199.0798321118
30
0.0000000000
10
301.6064911977
20
199.1596485199
30
0.0000000000
10
301.5855764513
20
199.2398923534
30
0.0000000000
10
301.5783438083
20
199.2864418780
30
0.0000000000
11
301.6706822637
21
199.0401592621
31
0.0000000000
11
301.6607005379
21
199.0556006563
31
0.0000000000
11
301.6143809244
21
199.1499828940
31
0.0000000000
11
301.5783438083
21
199.2864418780
31
0.0000000000
0
SPLINE
5
447
100
AcDbEntity
8
0
100
AcDbSpline
62
7
6
CONTINUOUS
70
0
71
3
72
8
73
4
74
2
42
0.0000001000
43
0.0000001000
44
0.0000000001
40
0.0000000000
40
0.0000000000
40
0.0000000000
40
0.0000000000
40
1.0000000000
40
1.0000000000
40
1.0000000000
40
1.0000000000
10
301.5783438083
20
199.2864418780
30
0.0000000000
10
301.5761319577
20
199.3006774203
30
0.0000000000
10
301.5743633810
20
199.3149704741
30
0.0000000000
10
301.5730346473
20
199.3292825786
30
0.0000000000
11
301.5783438083
21
199.2864418780
31
0.0000000000
11
301.5730346473
21
199.3292825786
31
0.0000000000
0
SPLINE
5
448
100
AcDbEntity
8
0
100
AcDbSpline
62
7
6
CONTINUOUS
70
0
71
3
72
12
73
8
74
6
42
0.0000001000
43
0.0000001000
44
0.0000000001
40
0.0000000000
40
0.0000000000
40
0.0000000000
40
0.0000000000
40
0.0764171411
40
0.3097118150
40
0.5804583227
40
0.8586573106
40
1.0000000000
40
1.0000000000
40
1.0000000000
40
1.0000000000
10
290.3771076098
20
212.9025211849
30
0.0000000000
10
290.3771075944
20
212.8992077105
30
0.0000000000
10
290.3771005155
20
212.8857784948
30
0.0000000000
10
290.3770363710
20
212.8606096608
30
0.0000000000
10
290.3768382007
20
212.8266919607
30
0.0000000000
10
290.3765563782
20
212.7967620849
30
0.0000000000
10
290.3763354133
20
212.7785719350
30
0.0000000000
10
290.3762553333
20
212.7724437862
30
0.0000000000
11
290.3771076098
21
212.9025211849
31
0.0000000000
11
290.3771024485
21
212.8925807626
31
0.0000000000
11
290.3770250868
21
212.8622336449
31
0.0000000000
11
290.3768193999
21
212.8270152555
31
0.0000000000
11
290.3764786598
21
212.7908284431
31
0.0000000000
11
290.3762553333
21
212.7724437862
31
0.0000000000
0
SPLINE
5
449
100
AcDbEntity
8
0
100
AcDbSpline
62
7
6
CONTINUOUS
70
0
71
3
72
8
73
4
74
2
42
0.0000001000
43
0.0000001000
44
0.0000000001
40
0.0000000000
40
0.0000000000
40
0.0000000000
40
0.0000000000
40
1.0000000000
40
1.0000000000
40
1.0000000000
40
1.0000000000
10
290.3762553333
20
212.7724437862
30
0.0000000000
10
290.3761926345
20
212.7676457454
30
0.0000000000
10
290.3761264799
20
212.7628477496
30
0.0000000000
10
290.3760568701
20
212.7580498040
30
0.0000000000
11
290.3762553333
21
212.7724437862
31
0.0000000000
11
290.3760568701
21
212.7580498040
31
0.0000000000
0
SPLINE
5
44A
100
AcDbEntity
8
0
100
AcDbSpline
62
7
6
CONTINUOUS
70
0
71
3
72
9
73
5
74
3
42
0.0000001000
43
0.0000001000
44
0.0000000001
40
0.0000000000
40
0.0000000000
40
0.0000000000
40
0.0000000000
40
0.4444045724
40
1.0000000000
40
1.0000000000
40
1.0000000000
40
1.0000000000
10
290.3760568701
20
212.7580498040
30
0.0000000000
10
290.3760365602
20
212.7566499229
30
0.0000000000
10
290.3759901971
20
212.7534999174
30
0.0000000000
10
290.3759423448
20
212.7503499341
30
0.0000000000
10
290.3759152985
20
212.7485998249
30
0.0000000000
11
290.3760568701
21
212.7580498040
31
0.0000000000
11
290.3759950582
21
212.7538501736
31
0.0000000000
11
290.3759152985
21
212.7485998249
31
0.0000000000
0
SPLINE
5
44B
100
AcDbEntity
8
0
100
AcDbSpline
62
7
6
CONTINUOUS
70
0
71
3
72
9
73
5
74
3
42
0.0000001000
43
0.0000001000
44
0.0000000001
40
0.0000000000
40
0.0000000000
40
0.0000000000
40
0.0000000000
40
0.6286043385
40
1.0000000000
40
1.0000000000
40
1.0000000000
40
1.0000000000
10
290.3759152985
20
212.7485998249
30
0.0000000000
10
290.3757473027
20
212.7377291603
30
0.0000000000
10
290.3754518350
20
212.7204362624
30
0.0000000000
10
290.3751114859
20
212.7031442042
30
0.0000000000
10
290.3749788915
20
212.6967221366
30
0.0000000000
11
290.3759152985
21
212.7485998249
31
0.0000000000
11
290.3753581036
21
212.7159887108
31
0.0000000000
11
290.3749788915
21
212.6967221366
31
0.0000000000
0
SPLINE
5
44C
100
AcDbEntity
8
0
100
AcDbSpline
62
7
6
CONTINUOUS
70
0
71
3
72
8
73
4
74
2
42
0.0000001000
43
0.0000001000
44
0.0000000001
40
0.0000000000
40
0.0000000000
40
0.0000000000
40
0.0000000000
40
1.0000000000
40
1.0000000000
40
1.0000000000
40
1.0000000000
10
290.3749788915
20
212.6967221366
30
0.0000000000
10
290.3748447941
20
212.6902272754
30
0.0000000000
10
290.3747043653
20
212.6837325448
30
0.0000000000
10
290.3745576056
20
212.6772379573
30
0.0000000000
11
290.3749788915
21
212.6967221366
31
0.0000000000
11
290.3745576056
21
212.6772379573
31
0.0000000000
0
SPLINE
5
44D
100
AcDbEntity
8
0
100
AcDbSpline
62
7
6
CONTINUOUS
70
0
71
3
72
9
73
5
74
3
42
0.0000001000
43
0.0000001000
44
0.0000000001
40
0.0000000000
40
0.0000000000
40
0.0000000000
40
0.0000000000
40
0.6632872646
40
1.0000000000
40
1.0000000000
40
1.0000000000
40
1.0000000000
10
290.3745576056
20
212.6772379573
30
0.0000000000
10
290.3742592882
20
212.6640364552
30
0.0000000000
10
290.3737700946
20
212.6441342018
30
0.0000000000
10
290.3732214507
20
212.6242335272
30
0.0000000000
10
290.3730299755
20
212.6175329092
30
0.0000000000
11
290.3745576056
21
212.6772379573
31
0.0000000000
11
290.3735841812
21
212.6376353274
31
0.0000000000
11
290.3730299755
21
212.6175329092
31
0.0000000000
0
SPLINE
5
44E
100
AcDbEntity
8
0
100
AcDbSpline
62
7
6
CONTINUOUS
70
0
71
3
72
8
73
4
74
2
42
0.0000001000
43
0.0000001000
44
0.0000000001
40
0.0000000000
40
0.0000000000
40
0.0000000000
40
0.0000000000
40
1.0000000000
40
1.0000000000
40
1.0000000000
40
1.0000000000
10
290.3730299755
20
212.6175329092
30
0.0000000000
10
290.3729457078
20
212.6145839856
30
0.0000000000
10
290.3728601347
20
212.6116350993
30
0.0000000000
10
290.3727732563
20
212.6086862515
30
0.0000000000
11
290.3730299755
21
212.6175329092
31
0.0000000000
11
290.3727732563
21
212.6086862515
31
0.0000000000
0
SPLINE
5
44F
100
AcDbEntity
8
0
100
AcDbSpline
62
7
6
CONTINUOUS
70
0
71
3
72
8
73
4
74
2
42
0.0000001000
43
0.0000001000
44
0.0000000001
40
0.0000000000
40
0.0000000000
40
0.0000000000
40
0.0000000000
40
1.0000000000
40
1.0000000000
40
1.0000000000
40
1.0000000000
10
290.3727732563
20
212.6086862515
30
0.0000000000
10
290.3726833376
20
212.6056342100
30
0.0000000000
10
290.3725920206
20
212.6025822097
30
0.0000000000
10
290.3724993053
20
212.5995302519
30
0.0000000000
11
290.3727732563
21
212.6086862515
31
0.0000000000
11
290.3724993053
21
212.5995302519
31
0.0000000000
0
SPLINE
5
450
100
AcDbEntity
8
0
100
AcDbSpline
62
7
6
CONTINUOUS
70
0
71
3
72
12
73
8
74
6
42
0.0000001000
43
0.0000001000
44
0.0000000001
40
0.0000000000
40
0.0000000000
40
0.0000000000
40
0.0000000000
40
0.0153745736
40
0.2916572638
40
0.5721735160
40
0.8562706571
40
1.0000000000
40
1.0000000000
40
1.0000000000
40
1.0000000000
10
290.3724993053
20
212.5995302519
30
0.0000000000
10
290.3724761404
20
212.5987677213
30
0.0000000000
10
290.3720350443
20
212.5843024867
30
0.0000000000
10
290.3711080788
20
212.5559264607
30
0.0000000000
10
290.3695728928
20
212.5142295729
30
0.0000000000
10
290.3681320645
20
212.4791112531
30
0.0000000000
10
290.3671942736
20
212.4579033237
30
0.0000000000
10
290.3668715966
20
212.4507788138
30
0.0000000000
11
290.3724993053
21
212.5995302519
31
0.0000000000
11
290.3724295488
21
212.5972426681
31
0.0000000000
11
290.3710867547
21
212.5561373959
31
0.0000000000
11
290.3695503819
21
212.5144082659
31
0.0000000000
11
290.3678167552
21
212.4721533631
31
0.0000000000
11
290.3668715966
21
212.4507788138
31
0.0000000000
0
SPLINE
5
451
100
AcDbEntity
8
0
100
AcDbSpline
62
7
6
CONTINUOUS
70
0
71
3
72
11
73
7
74
5
42
0.0000001000
43
0.0000001000
44
0.0000000001
40
0.0000000000
40
0.0000000000
40
0.0000000000
40
0.0000000000
40
0.1428531899
40
0.4323829731
40
0.7254182558
40
1.0000000000
40
1.0000000000
40
1.0000000000
40
1.0000000000
10
290.3668715966
20
212.4507788138
30
0.0000000000
10
290.3665498110
20
212.4436739850
30
0.0000000000
10
290.3655528932
20
212.4221703802
30
0.0000000000
10
290.3637638205
20
212.3860988441
30
0.0000000000
10
290.3614644076
20
212.3434866850
30
0.0000000000
10
290.3598220609
20
212.3152749148
30
0.0000000000
10
290.3589995950
20
212.3016293066
30
0.0000000000
11
290.3668715966
21
212.4507788138
31
0.0000000000
11
290.3658834950
21
212.4294653737
31
0.0000000000
11
290.3637413314
21
212.3862747672
31
0.0000000000
11
290.3613830180
21
212.3425710770
31
0.0000000000
11
290.3589995950
21
212.3016293066
31
0.0000000000
0
SPLINE
5
452
100
AcDbEntity
8
0
100
AcDbSpline
62
7
6
CONTINUOUS
70
0
71
3
72
12
73
8
74
6
42
0.0000001000
43
0.0000001000
44
0.0000000001
40
0.0000000000
40
0.0000000000
40
0.0000000000
40
0.0000000000
40
0.0227030323
40
0.3349038742
40
0.6501878469
40
0.9683596807
40
1.0000000000
40
1.0000000000
40
1.0000000000
40
1.0000000000
10
290.3589995950
20
212.3016293066
30
0.0000000000
10
290.3589343572
20
212.3005469386
30
0.0000000000
10
290.3579694024
20
212.2845805398
30
0.0000000000
10
290.3560216291
20
212.2535876204
30
0.0000000000
10
290.3529860448
20
212.2085235927
30
0.0000000000
10
290.3507072122
20
212.1768393252
30
0.0000000000
10
290.3494668747
20
212.1601778536
30
0.0000000000
10
290.3493543451
20
212.1586708581
30
0.0000000000
11
290.3589995950
21
212.3016293066
31
0.0000000000
11
290.3588033531
21
212.2983822346
31
0.0000000000
11
290.3559975743
21
212.2537367528
31
0.0000000000
11
290.3529613736
21
212.2086635732
31
0.0000000000
11
290.3496909087
21
212.1631919211
31
0.0000000000
11
290.3493543451
21
212.1586708581
31
0.0000000000
0
SPLINE
5
453
100
AcDbEntity
8
0
100
AcDbSpline
62
7
6
CONTINUOUS
70
0
71
3
72
8
73
4
74
2
42
0.0000001000
43
0.0000001000
44
0.0000000001
40
0.0000000000
40
0.0000000000
40
0.0000000000
40
0.0000000000
40
1.0000000000
40
1.0000000000
40
1.0000000000
40
1.0000000000
10
290.3493543451
20
212.1586708581
30
0.0000000000
10
290.3491211182
20
212.1555474832
30
0.0000000000
10
290.3488864234
20
212.1524242180
30
0.0000000000
10
290.3486502609
20
212.1493010637
30
0.0000000000
11
290.3493543451
21
212.1586708581
31
0.0000000000
11
290.3486502609
21
212.1493010637
31
0.0000000000
0
SPLINE
5
454
100
AcDbEntity
8
0
100
AcDbSpline
62
7
6
CONTINUOUS
70
0
71
3
72
8
73
4
74
2
42
0.0000001000
43
0.0000001000
44
0.0000000001
40
0.0000000000
40
0.0000000000
40
0.0000000000
40
0.0000000000
40
1.0000000000
40
1.0000000000
40
1.0000000000
40
1.0000000000
10
300.4081955846
20
212.1158516385
30
0.0000000000
10
300.4074109336
20
212.1257852682
30
0.0000000000
10
300.4066411358
20
212.1357200710
30
0.0000000000
10
300.4058861947
20
212.1456560026
30
0.0000000000
11
300.4081955846
21
212.1158516385
31
0.0000000000
11
300.4058861947
21
212.1456560026
31
0.0000000000
0
SPLINE
5
455
100
AcDbEntity
8
0
100
AcDbSpline
62
7
6
CONTINUOUS
70
0
71
3
72
8
73
4
74
2
42
0.0000001000
43
0.0000001000
44
0.0000000001
40
0.0000000000
40
0.0000000000
40
0.0000000000
40
0.0000000000
40
1.0000000000
40
1.0000000000
40
1.0000000000
40
1.0000000000
10
300.4058861947
20
212.1456560026
30
0.0000000000
10
300.4056133024
20
212.1492475925
30
0.0000000000
10
300.4053423514
20
212.1528393298
30
0.0000000000
10
300.4050733418
20
212.1564312126
30
0.0000000000
11
300.4058861947
21
212.1456560026
31
0.0000000000
11
300.4050733418
21
212.1564312126
31
0.0000000000
0
SPLINE
5
456
100
AcDbEntity
8
0
100
AcDbSpline
62
7
6
CONTINUOUS
70
0
71
3
72
9
73
5
74
3
42
0.0000001000
43
0.0000001000
44
0.0000000001
40
0.0000000000
40
0.0000000000
40
0.0000000000
40
0.0000000000
40
0.1495760529
40
1.0000000000
40
1.0000000000
40
1.0000000000
40
1.0000000000
10
300.4050733418
20
212.1564312126
30
0.0000000000
10
300.4049601891
20
212.1579420546
30
0.0000000000
10
300.4042059964
20
212.1680430549
30
0.0000000000
10
300.4034671569
20
212.1781451980
30
0.0000000000
10
300.4028499359
20
212.1867371002
30
0.0000000000
11
300.4050733418
21
212.1564312126
31
0.0000000000
11
300.4047349143
21
212.1609638157
31
0.0000000000
11
300.4028499359
21
212.1867371002
31
0.0000000000
0
SPLINE
5
457
100
AcDbEntity
8
0
100
AcDbSpline
62
7
6
CONTINUOUS
70
0
71
3
72
10
73
6
74
4
42
0.0000001000
43
0.0000001000
44
0.0000000001
40
0.0000000000
40
0.0000000000
40
0.0000000000
40
0.0000000000
40
0.1704703050
40
0.7296750725
40
1.0000000000
40
1.0000000000
40
1.0000000000
40
1.0000000000
10
300.3953944550
20
212.2994225806
30
0.0000000000
10
300.3950893833
20
212.3044658864
30
0.0000000000
10
300.3937999319
20
212.3260540644
30
0.0000000000
10
300.3921287917
20
212.3556457413
30
0.0000000000
10
300.3908331069
20
212.3801978045
30
0.0000000000
10
300.3904204927
20
212.3881992614
30
0.0000000000
11
300.3953944550
21
212.2994225806
31
0.0000000000
11
300.3944907113
21
212.3145531861
31
0.0000000000
11
300.3916871943
21
212.3641964017
31
0.0000000000
11
300.3904204927
21
212.3881992614
31
0.0000000000
0
SPLINE
5
458
100
AcDbEntity
8
0
100
AcDbSpline
62
7
6
CONTINUOUS
70
0
71
3
72
9
73
5
74
3
42
0.0000001000
43
0.0000001000
44
0.0000000001
40
0.0000000000
40
0.0000000000
40
0.0000000000
40
0.0000000000
40
0.5074759867
40
1.0000000000
40
1.0000000000
40
1.0000000000
40
1.0000000000
10
300.3904204927
20
212.3881992614
30
0.0000000000
10
300.3899946596
20
212.3964570592
30
0.0000000000
10
300.3891757305
20
212.4127303928
30
0.0000000000
10
300.3883965930
20
212.4290056790
30
0.0000000000
10
300.3880225028
20
212.4370220987
30
0.0000000000
11
300.3904204927
21
212.3881992614
31
0.0000000000
11
300.3891737335
21
212.4129742141
31
0.0000000000
11
300.3880225028
21
212.4370220987
31
0.0000000000
0
SPLINE
5
459
100
AcDbEntity
8
0
100
AcDbSpline
62
7
6
CONTINUOUS
70
0
71
3
72
8
73
4
74
2
42
0.0000001000
43
0.0000001000
44
0.0000000001
40
0.0000000000
40
0.0000000000
40
0.0000000000
40
0.0000000000
40
1.0000000000
40
1.0000000000
40
1.0000000000
40
1.0000000000
10
300.3880225028
20
212.4370220987
30
0.0000000000
10
300.3878024063
20
212.4417385710
30
0.0000000000
10
300.3875856515
20
212.4464551993
30
0.0000000000
10
300.3873722387
20
212.4511719787
30
0.0000000000
11
300.3880225028
21
212.4370220987
31
0.0000000000
11
300.3873722387
21
212.4511719787
31
0.0000000000
0
SPLINE
5
45A
100
AcDbEntity
8
0
100
AcDbSpline
62
7
6
CONTINUOUS
70
0
71
3
72
9
73
5
74
3
42
0.0000001000
43
0.0000001000
44
0.0000000001
40
0.0000000000
40
0.0000000000
40
0.0000000000
40
0.0000000000
40
0.2202467272
40
1.0000000000
40
1.0000000000
40
1.0000000000
40
1.0000000000
10
300.3873722387
20
212.4511719787
30
0.0000000000
10
300.3872264974
20
212.4543931042
30
0.0000000000
10
300.3865718556
20
212.4690185018
30
0.0000000000
10
300.3859493449
20
212.4836453219
30
0.0000000000
10
300.3854834792
20
212.4950514305
30
0.0000000000
11
300.3873722387
21
212.4511719787
31
0.0000000000
11
300.3869396906
21
212.4608355651
31
0.0000000000
11
300.3854834792
21
212.4950514305
31
0.0000000000
0
SPLINE
5
45B
100
AcDbEntity
8
0
100
AcDbSpline
62
7
6
CONTINUOUS
70
0
71
3
72
8
73
4
74
2
42
0.0000001000
43
0.0000001000
44
0.0000000001
40
0.0000000000
40
0.0000000000
40
0.0000000000
40
0.0000000000
40
1.0000000000
40
1.0000000000
40
1.0000000000
40
1.0000000000
10
300.3817274173
20
212.6007162354
30
0.0000000000
10
300.3817059013
20
212.6014274546
30
0.0000000000
10
300.3816844612
20
212.6021386761
30
0.0000000000
10
300.3816630971
20
212.6028498999
30
0.0000000000
11
300.3817274173
21
212.6007162354
31
0.0000000000
11
300.3816630971
21
212.6028498999
31
0.0000000000
0
SPLINE
5
45C
100
AcDbEntity
8
0
100
AcDbSpline
62
7
6
CONTINUOUS
70
0
71
3
72
9
73
5
74
3
42
0.0000001000
43
0.0000001000
44
0.0000000001
40
0.0000000000
40
0.0000000000
40
0.0000000000
40
0.0000000000
40
0.9736383398
40
1.0000000000
40
1.0000000000
40
1.0000000000
40
1.0000000000
10
300.3816630971
20
212.6028498999
30
0.0000000000
10
300.3812698069
20
212.6159427557
30
0.0000000000
10
300.3808923019
20
212.6293908997
30
0.0000000000
10
300.3805419506
20
212.6428397523
30
0.0000000000
10
300.3805327336
20
212.6431942868
30
0.0000000000
11
300.3816630971
21
212.6028498999
31
0.0000000000
11
300.3805604412
21
212.6421306846
31
0.0000000000
11
300.3805327336
21
212.6431942868
31
0.0000000000
0
SPLINE
5
45D
100
AcDbEntity
8
0
100
AcDbSpline
62
7
6
CONTINUOUS
70
0
71
3
72
8
73
4
74
2
42
0.0000001000
43
0.0000001000
44
0.0000000001
40
0.0000000000
40
0.0000000000
40
0.0000000000
40
0.0000000000
40
1.0000000000
40
1.0000000000
40
1.0000000000
40
1.0000000000
10
300.3805327336
20
212.6431942868
30
0.0000000000
10
300.3803874606
20
212.6487822752
30
0.0000000000
10
300.3802468753
20
212.6543703854
30
0.0000000000
10
300.3801109781
20
212.6599586096
30
0.0000000000
11
300.3805327336
21
212.6431942868
31
0.0000000000
11
300.3801109781
21
212.6599586096
31
0.0000000000
0
SPLINE
5
45E
100
AcDbEntity
8
0
100
AcDbSpline
62
7
6
CONTINUOUS
70
0
71
3
72
8
73
4
74
2
42
0.0000001000
43
0.0000001000
44
0.0000000001
40
0.0000000000
40
0.0000000000
40
0.0000000000
40
0.0000000000
40
1.0000000000
40
1.0000000000
40
1.0000000000
40
1.0000000000
10
300.3801109781
20
212.6599586096
30
0.0000000000
10
300.3800282532
20
212.6633603355
30
0.0000000000
10
300.3799472656
20
212.6667621036
30
0.0000000000
10
300.3798680152
20
212.6701639121
30
0.0000000000
11
300.3801109781
21
212.6599586096
31
0.0000000000
11
300.3798680152
21
212.6701639121
31
0.0000000000
0
SPLINE
5
45F
100
AcDbEntity
8
0
100
AcDbSpline
62
7
6
CONTINUOUS
70
0
71
3
72
8
73
4
74
2
42
0.0000001000
43
0.0000001000
44
0.0000000001
40
0.0000000000
40
0.0000000000
40
0.0000000000
40
0.0000000000
40
1.0000000000
40
1.0000000000
40
1.0000000000
40
1.0000000000
10
300.3798680152
20
212.6701639121
30
0.0000000000
10
300.3797783537
20
212.6740126191
30
0.0000000000
10
300.3796909158
20
212.6778613779
30
0.0000000000
10
300.3796057018
20
212.6817101859
30
0.0000000000
11
300.3798680152
21
212.6701639121
31
0.0000000000
11
300.3796057018
21
212.6817101859
31
0.0000000000
0
SPLINE
5
460
100
AcDbEntity
8
0
100
AcDbSpline
62
7
6
CONTINUOUS
70
0
71
3
72
9
73
5
74
3
42
0.0000001000
43
0.0000001000
44
0.0000000001
40
0.0000000000
40
0.0000000000
40
0.0000000000
40
0.0000000000
40
0.3422271553
40
1.0000000000
40
1.0000000000
40
1.0000000000
40
1.0000000000
10
300.3796057018
20
212.6817101859
30
0.0000000000
10
300.3795834558
20
212.6827149577
30
0.0000000000
10
300.3795188950
20
212.6856509469
30
0.0000000000
10
300.3794556282
20
212.6885869643
30
0.0000000000
10
300.3794145730
20
212.6905182087
30
0.0000000000
11
300.3796057018
21
212.6817101859
31
0.0000000000
11
300.3795394184
21
212.6847245115
31
0.0000000000
11
300.3794145730
21
212.6905182087
31
0.0000000000
0
SPLINE
5
461
100
AcDbEntity
8
0
100
AcDbSpline
62
7
6
CONTINUOUS
70
0
71
3
72
8
73
4
74
2
42
0.0000001000
43
0.0000001000
44
0.0000000001
40
0.0000000000
40
0.0000000000
40
0.0000000000
40
0.0000000000
40
1.0000000000
40
1.0000000000
40
1.0000000000
40
1.0000000000
10
300.3794145730
20
212.6905182087
30
0.0000000000
10
300.3792537798
20
212.6980819457
30
0.0000000000
10
300.3791015751
20
212.7056458652
30
0.0000000000
10
300.3789579602
20
212.7132099478
30
0.0000000000
11
300.3794145730
21
212.6905182087
31
0.0000000000
11
300.3789579602
21
212.7132099478
31
0.0000000000
0
SPLINE
5
462
100
AcDbEntity
8
0
100
AcDbSpline
62
7
6
CONTINUOUS
70
0
71
3
72
9
73
5
74
3
42
0.0000001000
43
0.0000001000
44
0.0000000001
40
0.0000000000
40
0.0000000000
40
0.0000000000
40
0.0000000000
40
0.5162172346
40
1.0000000000
40
1.0000000000
40
1.0000000000
40
1.0000000000
10
300.3789579602
20
212.7132099478
30
0.0000000000
10
300.3788732879
20
212.7176695664
30
0.0000000000
10
300.3787150474
20
212.7263087110
30
0.0000000000
10
300.3785680122
20
212.7349480532
30
0.0000000000
10
300.3784995020
20
212.7391276610
30
0.0000000000
11
300.3789579602
21
212.7132099478
31
0.0000000000
11
300.3787129009
21
212.7265889697
31
0.0000000000
11
300.3784995020
21
212.7391276610
31
0.0000000000
0
SPLINE
5
463
100
AcDbEntity
8
0
100
AcDbSpline
62
7
6
CONTINUOUS
70
0
71
3
72
8
73
4
74
2
42
0.0000001000
43
0.0000001000
44
0.0000000001
40
0.0000000000
40
0.0000000000
40
0.0000000000
40
0.0000000000
40
1.0000000000
40
1.0000000000
40
1.0000000000
40
1.0000000000
10
300.3784995020
20
212.7391276610
30
0.0000000000
10
300.3784561276
20
212.7417738024
30
0.0000000000
10
300.3784138045
20
212.7444199610
30
0.0000000000
10
300.3783725328
20
212.7470661360
30
0.0000000000
11
300.3784995020
21
212.7391276610
31
0.0000000000
11
300.3783725328
21
212.7470661360
31
0.0000000000
0
SPLINE
5
464
100
AcDbEntity
8
0
100
AcDbSpline
62
7
6
CONTINUOUS
70
0
71
3
72
8
73
4
74
2
42
0.0000001000
43
0.0000001000
44
0.0000000001
40
0.0000000000
40
0.0000000000
40
0.0000000000
40
0.0000000000
40
1.0000000000
40
1.0000000000
40
1.0000000000
40
1.0000000000
10
300.3783725328
20
212.7470661360
30
0.0000000000
10
300.3783297161
20
212.7498113707
30
0.0000000000
10
300.3782880309
20
212.7525566231
30
0.0000000000
10
300.3782474773
20
212.7553018922
30
0.0000000000
11
300.3783725328
21
212.7470661360
31
0.0000000000
11
300.3782474773
21
212.7553018922
31
0.0000000000
0
SPLINE
5
465
100
AcDbEntity
8
0
100
AcDbSpline
62
7
6
CONTINUOUS
70
0
71
3
72
8
73
4
74
2
42
0.0000001000
43
0.0000001000
44
0.0000000001
40
0.0000000000
40
0.0000000000
40
0.0000000000
40
0.0000000000
40
1.0000000000
40
1.0000000000
40
1.0000000000
40
1.0000000000
10
300.3782474773
20
212.7553018922
30
0.0000000000
10
300.3782055442
20
212.7581405402
30
0.0000000000
10
300.3781648211
20
212.7609792060
30
0.0000000000
10
300.3781253080
20
212.7638178887
30
0.0000000000
11
300.3782474773
21
212.7553018922
31
0.0000000000
11
300.3781253080
21
212.7638178887
31
0.0000000000
0
SPLINE
5
466
100
AcDbEntity
8
0
100
AcDbSpline
62
7
6
CONTINUOUS
70
0
71
3
72
9
73
5
74
3
42
0.0000001000
43
0.0000001000
44
0.0000000001
40
0.0000000000
40
0.0000000000
40
0.0000000000
40
0.0000000000
40
0.1278490654
40
1.0000000000
40
1.0000000000
40
1.0000000000
40
1.0000000000
10
300.3781253080
20
212.7638178887
30
0.0000000000
10
300.3781099030
20
212.7649246027
30
0.0000000000
10
300.3779908483
20
212.7735810331
30
0.0000000000
10
300.3778830455
20
212.7822376162
30
0.0000000000
10
300.3777975882
20
212.7897875600
30
0.0000000000
11
300.3781253080
21
212.7638178887
31
0.0000000000
11
300.3780796449
21
212.7671380383
31
0.0000000000
11
300.3777975882
21
212.7897875600
31
0.0000000000
0
SPLINE
5
467
100
AcDbEntity
8
0
100
AcDbSpline
62
7
6
CONTINUOUS
70
0
71
3
72
9
73
5
74
3
42
0.0000001000
43
0.0000001000
44
0.0000000001
40
0.0000000000
40
0.0000000000
40
0.0000000000
40
0.0000000000
40
0.5735239252
40
1.0000000000
40
1.0000000000
40
1.0000000000
40
1.0000000000
10
300.3777975882
20
212.7897875600
30
0.0000000000
10
300.3777373345
20
212.7951108270
30
0.0000000000
10
300.3776396980
20
212.8043925933
30
0.0000000000
10
300.3775550077
20
212.8136744851
30
0.0000000000
10
300.3775212448
20
212.8176330100
30
0.0000000000
11
300.3777975882
21
212.7897875600
31
0.0000000000
11
300.3776295992
21
212.8057574983
31
0.0000000000
11
300.3775212448
21
212.8176330100
31
0.0000000000
0
SPLINE
5
468
100
AcDbEntity
8
0
100
AcDbSpline
62
7
6
CONTINUOUS
70
0
71
3
72
8
73
4
74
2
42
0.0000001000
43
0.0000001000
44
0.0000000001
40
0.0000000000
40
0.0000000000
40
0.0000000000
40
0.0000000000
40
1.0000000000
40
1.0000000000
40
1.0000000000
40
1.0000000000
10
300.3775212448
20
212.8176330100
30
0.0000000000
10
300.3774649707
20
212.8242308451
30
0.0000000000
10
300.3774152400
20
212.8308287360
30
0.0000000000
10
300.3773720562
20
212.8374266697
30
0.0000000000
11
300.3775212448
21
212.8176330100
31
0.0000000000
11
300.3773720562
21
212.8374266697
31
0.0000000000
0
SPLINE
5
469
100
AcDbEntity
8
0
100
AcDbSpline
62
7
6
CONTINUOUS
70
0
71
3
72
9
73
5
74
3
42
0.0000001000
43
0.0000001000
44
0.0000000001
40
0.0000000000
40
0.0000000000
40
0.0000000000
40
0.0000000000
40
0.1402861263
40
1.0000000000
40
1.0000000000
40
1.0000000000
40
1.0000000000
10
300.3773720562
20
212.8374266697
30
0.0000000000
10
300.3773617689
20
212.8389984334
30
0.0000000000
10
300.3772910867
20
212.8502024366
30
0.0000000000
10
300.3772392853
20
212.8614065545
30
0.0000000000
10
300.3772088019
20
212.8710389336
30
0.0000000000
11
300.3773720562
21
212.8374266697
31
0.0000000000
11
300.3773423090
21
212.8421419681
31
0.0000000000
11
300.3772088019
21
212.8710389336
31
0.0000000000
0
SPLINE
5
46A
100
AcDbEntity
8
0
100
AcDbSpline
62
7
6
CONTINUOUS
70
0
71
3
72
9
73
5
74
3
42
0.0000001000
43
0.0000001000
44
0.0000000001
40
0.0000000000
40
0.0000000000
40
0.0000000000
40
0.0000000000
40
0.4046280808
40
1.0000000000
40
1.0000000000
40
1.0000000000
40
1.0000000000
10
300.3772088019
20
212.8710389336
30
0.0000000000
10
300.3772030858
20
212.8728451434
30
0.0000000000
10
300.3771901801
20
212.8773090239
30
0.0000000000
10
300.3771802958
20
212.8817729120
30
0.0000000000
10
300.3771754871
20
212.8844305875
30
0.0000000000
11
300.3772088019
21
212.8710389336
31
0.0000000000
11
300.3771931365
21
212.8764575674
31
0.0000000000
11
300.3771754871
21
212.8844305875
31
0.0000000000
0
SPLINE
5
46B
100
AcDbEntity
8
0
100
AcDbSpline
62
7
6
CONTINUOUS
70
0
71
3
72
8
73
4
74
2
42
0.0000001000
43
0.0000001000
44
0.0000000001
40
0.0000000000
40
0.0000000000
40
0.0000000000
40
0.0000000000
40
1.0000000000
40
1.0000000000
40
1.0000000000
40
1.0000000000
10
300.3771754871
20
212.8844305875
30
0.0000000000
10
300.3771698056
20
212.8875705944
30
0.0000000000
10
300.3771656261
20
212.8907106039
30
0.0000000000
10
300.3771629569
20
212.8938506146
30
0.0000000000
11
300.3771754871
21
212.8844305875
31
0.0000000000
11
300.3771629569
21
212.8938506146
31
0.0000000000
0
SPLINE
5
46C
100
AcDbEntity
8
0
100
AcDbSpline
62
7
6
CONTINUOUS
70
0
71
3
72
17
73
13
74
11
42
0.0000001000
43
0.0000001000
44
0.0000000001
40
0.0000000000
40
0.0000000000
40
0.0000000000
40
0.0000000000
40
0.0438520057
40
0.1619626479
40
0.2788037357
40
0.3942533040
40
0.5081909993
40
0.6204989452
40
0.7311087775
40
0.8401126015
40
0.9472380862
40
1.0000000000
40
1.0000000000
40
1.0000000000
40
1.0000000000
10
300.4057888896
20
212.1469375723
30
0.0000000000
10
300.4052864553
20
212.1535614704
30
0.0000000000
10
300.4034551544
20
212.1780279725
30
0.0000000000
10
300.4004578070
20
212.2201562461
30
0.0000000000
10
300.3969735585
20
212.2731225338
30
0.0000000000
10
300.3938071935
20
212.3254754862
30
0.0000000000
10
300.3909517332
20
212.3771585708
30
0.0000000000
10
300.3883987862
20
212.4281234182
30
0.0000000000
10
300.3861377303
20
212.4783538866
30
0.0000000000
10
300.3841588464
20
212.5278105703
30
0.0000000000
10
300.3827302967
20
212.5685186409
30
0.0000000000
10
300.3819688409
20
212.5927272401
30
0.0000000000
10
300.3817271469
20
212.6007162272
30
0.0000000000
11
300.4057888896
21
212.1469375723
31
0.0000000000
11
300.4043013955
21
212.1668107559
31
0.0000000000
11
300.4004920823
21
212.2203513606
31
0.0000000000
11
300.3970066375
21
212.2733358352
31
0.0000000000
11
300.3938391865
21
212.3257067458
31
0.0000000000
11
300.3909827540
21
212.3774074285
31
0.0000000000
11
300.3884293002
21
212.4283823977
31
0.0000000000
11
300.3861688815
21
212.4785987160
31
0.0000000000
11
300.3841883569
21
212.5280964183
31
0.0000000000
11
300.3824809741
21
212.5767501583
31
0.0000000000
11
300.3817271469
21
212.6007162272
31
0.0000000000
0
SPLINE
5
46D
100
AcDbEntity
8
0
100
AcDbSpline
62
7
6
CONTINUOUS
70
0
71
3
72
9
73
5
74
3
42
0.0000001000
43
0.0000001000
44
0.0000000001
40
0.0000000000
40
0.0000000000
40
0.0000000000
40
0.0000000000
40
0.3373369700
40
1.0000000000
40
1.0000000000
40
1.0000000000
40
1.0000000000
10
300.3817271469
20
212.6007162272
30
0.0000000000
10
300.3814880940
20
212.6086179143
30
0.0000000000
10
300.3808072344
20
212.6320424758
30
0.0000000000
10
300.3802087549
20
212.6554693331
30
0.0000000000
10
300.3798483457
20
212.6709942850
30
0.0000000000
11
300.3817271469
21
212.6007162272
31
0.0000000000
11
300.3810381103
21
212.6244221167
31
0.0000000000
11
300.3798483457
21
212.6709942850
31
0.0000000000
0
SPLINE
5
46E
100
AcDbEntity
8
0
100
AcDbSpline
62
7
6
CONTINUOUS
70
0
71
3
72
13
73
9
74
7
42
0.0000001000
43
0.0000001000
44
0.0000000001
40
0.0000000000
40
0.0000000000
40
0.0000000000
40
0.0000000000
40
0.2023406319
40
0.3991581345
40
0.5906245034
40
0.7756090619
40
0.9380175526
40
1.0000000000
40
1.0000000000
40
1.0000000000
40
1.0000000000
10
300.3798483457
20
212.6709942850
30
0.0000000000
10
300.3794971826
20
212.6861209478
30
0.0000000000
10
300.3788722010
20
212.7159629454
30
0.0000000000
10
300.3781452563
20
212.7601231091
30
0.0000000000
10
300.3776264949
20
212.8029882443
30
0.0000000000
10
300.3773092443
20
212.8432822006
30
0.0000000000
10
300.3771877589
20
212.8738945072
30
0.0000000000
10
300.3771638397
20
212.8906741131
30
0.0000000000
10
300.3771605193
20
212.8953090662
30
0.0000000000
11
300.3798483457
21
212.6709942850
31
0.0000000000
11
300.3788979083
21
212.7163765086
31
0.0000000000
11
300.3781711823
21
212.7605236689
31
0.0000000000
11
300.3776514189
21
212.8034732164
31
0.0000000000
11
300.3773247143
21
212.8449705230
31
0.0000000000
11
300.3771803097
21
212.8814042173
31
0.0000000000
11
300.3771605193
21
212.8953090662
31
0.0000000000
0
SPLINE
5
46F
100
AcDbEntity
8
0
100
AcDbSpline
62
7
6
CONTINUOUS
70
0
71
3
72
8
73
4
74
2
42
0.0000001000
43
0.0000001000
44
0.0000000001
40
0.0000000000
40
0.0000000000
40
0.0000000000
40
0.0000000000
40
1.0000000000
40
1.0000000000
40
1.0000000000
40
1.0000000000
10
300.3771605193
20
212.8953090662
30
0.0000000000
10
300.3771595000
20
212.8967318295
30
0.0000000000
10
300.3771587905
20
212.8981545929
30
0.0000000000
10
300.3771583915
20
212.8995773564
30
0.0000000000
11
300.3771605193
21
212.8953090662
31
0.0000000000
11
300.3771583915
21
212.8995773564
31
0.0000000000
0
SPLINE
5
470
100
AcDbEntity
8
0
100
AcDbSpline
62
7
6
CONTINUOUS
70
0
71
3
72
8
73
4
74
2
42
0.0000001000
43
0.0000001000
44
0.0000000001
40
0.0000000000
40
0.0000000000
40
0.0000000000
40
0.0000000000
40
1.0000000000
40
1.0000000000
40
1.0000000000
40
1.0000000000
10
290.3368769408
20
212.0069896274
30
0.0000000000
10
290.3400505090
20
212.0422317607
30
0.0000000000
10
290.3430368936
20
212.0774915972
30
0.0000000000
10
290.3458359120
20
212.1127667468
30
0.0000000000
11
290.3368769408
21
212.0069896274
31
0.0000000000
11
290.3458359120
21
212.1127667468
31
0.0000000000
0
SPLINE
5
471
100
AcDbEntity
8
0
100
AcDbSpline
62
7
6
CONTINUOUS
70
0
71
3
72
8
73
4
74
2
42
0.0000001000
43
0.0000001000
44
0.0000000001
40
0.0000000000
40
0.0000000000
40
0.0000000000
40
0.0000000000
40
1.0000000000
40
1.0000000000
40
1.0000000000
40
1.0000000000
10
290.3458359120
20
212.1127667468
30
0.0000000000
10
290.3468609487
20
212.1256849628
30
0.0000000000
10
290.3478608574
20
212.1386052323
30
0.0000000000
10
290.3488356291
20
212.1515274382
30
0.0000000000
11
290.3458359120
21
212.1127667468
31
0.0000000000
11
290.3488356291
21
212.1515274382
31
0.0000000000
0
SPLINE
5
472
100
AcDbEntity
8
0
100
AcDbSpline
62
7
6
CONTINUOUS
70
0
71
3
72
8
73
4
74
2
42
0.0000001000
43
0.0000001000
44
0.0000000001
40
0.0000000000
40
0.0000000000
40
0.0000000000
40
0.0000000000
40
1.0000000000
40
1.0000000000
40
1.0000000000
40
1.0000000000
10
290.3493718119
20
212.1586695531
30
0.0000000000
10
290.3516245563
20
212.1888215362
30
0.0000000000
10
290.3537404480
20
212.2189839425
30
0.0000000000
10
290.3557193733
20
212.2491552811
30
0.0000000000
11
290.3493718119
21
212.1586695531
31
0.0000000000
11
290.3557193733
21
212.2491552811
31
0.0000000000
0
SPLINE
5
473
100
AcDbEntity
8
0
100
AcDbSpline
62
7
6
CONTINUOUS
70
0
71
3
72
8
73
4
74
2
42
0.0000001000
43
0.0000001000
44
0.0000000001
40
0.0000000000
40
0.0000000000
40
0.0000000000
40
0.0000000000
40
1.0000000000
40
1.0000000000
40
1.0000000000
40
1.0000000000
10
290.3557193733
20
212.2491552811
30
0.0000000000
10
290.3569438137
20
212.2678234985
30
0.0000000000
10
290.3581158179
20
212.2864951355
30
0.0000000000
10
290.3592353590
20
212.3051698389
30
0.0000000000
11
290.3557193733
21
212.2491552811
31
0.0000000000
11
290.3592353590
21
212.3051698389
31
0.0000000000
0
SPLINE
5
474
100
AcDbEntity
8
0
100
AcDbSpline
62
7
6
CONTINUOUS
70
0
71
3
72
8
73
4
74
2
42
0.0000001000
43
0.0000001000
44
0.0000000001
40
0.0000000000
40
0.0000000000
40
0.0000000000
40
0.0000000000
40
1.0000000000
40
1.0000000000
40
1.0000000000
40
1.0000000000
10
290.3592353590
20
212.3051698389
30
0.0000000000
10
290.3615164667
20
212.3432202625
30
0.0000000000
10
290.3635797703
20
212.3812834165
30
0.0000000000
10
290.3654251685
20
212.4193570554
30
0.0000000000
11
290.3592353590
21
212.3051698389
31
0.0000000000
11
290.3654251685
21
212.4193570554
31
0.0000000000
0
SPLINE
5
475
100
AcDbEntity
8
0
100
AcDbSpline
62
7
6
CONTINUOUS
70
0
71
3
72
8
73
4
74
2
42
0.0000001000
43
0.0000001000
44
0.0000000001
40
0.0000000000
40
0.0000000000
40
0.0000000000
40
0.0000000000
40
1.0000000000
40
1.0000000000
40
1.0000000000
40
1.0000000000
10
290.3654251685
20
212.4193570554
30
0.0000000000
10
290.3659265692
20
212.4297017891
30
0.0000000000
10
290.3664118836
20
212.4400472969
30
0.0000000000
10
290.3668811096
20
212.4503935336
30
0.0000000000
11
290.3654251685
21
212.4193570554
31
0.0000000000
11
290.3668811096
21
212.4503935336
31
0.0000000000
0
SPLINE
5
476
100
AcDbEntity
8
0
100
AcDbSpline
62
7
6
CONTINUOUS
70
0
71
3
72
8
73
4
74
2
42
0.0000001000
43
0.0000001000
44
0.0000000001
40
0.0000000000
40
0.0000000000
40
0.0000000000
40
0.0000000000
40
1.0000000000
40
1.0000000000
40
1.0000000000
40
1.0000000000
10
290.3668811096
20
212.4503935336
30
0.0000000000
10
290.3670103747
20
212.4532437737
30
0.0000000000
10
290.3671384188
20
212.4560940692
30
0.0000000000
10
290.3672652418
20
212.4589444190
30
0.0000000000
11
290.3668811096
21
212.4503935336
31
0.0000000000
11
290.3672652418
21
212.4589444190
31
0.0000000000
0
SPLINE
5
477
100
AcDbEntity
8
0
100
AcDbSpline
62
7
6
CONTINUOUS
70
0
71
3
72
8
73
4
74
2
42
0.0000001000
43
0.0000001000
44
0.0000000001
40
0.0000000000
40
0.0000000000
40
0.0000000000
40
0.0000000000
40
1.0000000000
40
1.0000000000
40
1.0000000000
40
1.0000000000
10
290.3721409774
20
212.5870235929
30
0.0000000000
10
290.3722873980
20
212.5916505029
30
0.0000000000
10
290.3724306027
20
212.5962775190
30
0.0000000000
10
290.3725705913
20
212.6009046370
30
0.0000000000
11
290.3721409774
21
212.5870235929
31
0.0000000000
11
290.3725705913
21
212.6009046370
31
0.0000000000
0
SPLINE
5
478
100
AcDbEntity
8
0
100
AcDbSpline
62
7
6
CONTINUOUS
70
0
71
3
72
8
73
4
74
2
42
0.0000001000
43
0.0000001000
44
0.0000000001
40
0.0000000000
40
0.0000000000
40
0.0000000000
40
0.0000000000
40
1.0000000000
40
1.0000000000
40
1.0000000000
40
1.0000000000
10
290.3725705913
20
212.6009046370
30
0.0000000000
10
290.3740597557
20
212.6501267839
30
0.0000000000
10
290.3751849768
20
212.6993605067
30
0.0000000000
10
290.3759461653
20
212.7485993477
30
0.0000000000
11
290.3725705913
21
212.6009046370
31
0.0000000000
11
290.3759461653
21
212.7485993477
31
0.0000000000
0
SPLINE
5
479
100
AcDbEntity
8
0
100
AcDbSpline
62
7
6
CONTINUOUS
70
0
71
3
72
8
73
4
74
2
42
0.0000001000
43
0.0000001000
44
0.0000000001
40
0.0000000000
40
0.0000000000
40
0.0000000000
40
0.0000000000
40
1.0000000000
40
1.0000000000
40
1.0000000000
40
1.0000000000
10
290.3759461653
20
212.7485993477
30
0.0000000000
10
290.3759948612
20
212.7517493299
30
0.0000000000
10
290.3760420673
20
212.7548993330
30
0.0000000000
10
290.3760877835
20
212.7580493554
30
0.0000000000
11
290.3759461653
21
212.7485993477
31
0.0000000000
11
290.3760877835
21
212.7580493554
31
0.0000000000
0
SPLINE
5
47A
100
AcDbEntity
8
0
100
AcDbSpline
62
7
6
CONTINUOUS
70
0
71
3
72
8
73
4
74
2
42
0.0000001000
43
0.0000001000
44
0.0000000001
40
0.0000000000
40
0.0000000000
40
0.0000000000
40
0.0000000000
40
1.0000000000
40
1.0000000000
40
1.0000000000
40
1.0000000000
10
290.3762863122
20
212.7724433812
30
0.0000000000
10
290.3765683968
20
212.7940228070
30
0.0000000000
10
290.3767805622
20
212.8156030153
30
0.0000000000
10
290.3769228012
20
212.8371834626
30
0.0000000000
11
290.3762863122
21
212.7724433812
31
0.0000000000
11
290.3769228012
21
212.8371834626
31
0.0000000000
0
SPLINE
5
47B
100
AcDbEntity
8
0
100
AcDbSpline
62
7
6
CONTINUOUS
70
0
71
3
72
8
73
4
74
2
42
0.0000001000
43
0.0000001000
44
0.0000000001
40
0.0000000000
40
0.0000000000
40
0.0000000000
40
0.0000000000
40
1.0000000000
40
1.0000000000
40
1.0000000000
40
1.0000000000
10
290.3769228012
20
212.8371834626
30
0.0000000000
10
290.3770671113
20
212.8590781522
30
0.0000000000
10
290.3771394437
20
212.8809730878
30
0.0000000000
10
290.3771397903
20
212.9028677014
30
0.0000000000
11
290.3769228012
21
212.8371834626
31
0.0000000000
11
290.3771397903
21
212.9028677014
31
0.0000000000
0
SPLINE
5
47C
100
AcDbEntity
8
0
100
AcDbSpline
62
7
6
CONTINUOUS
70
0
71
3
72
11
73
7
74
5
42
0.0000001000
43
0.0000001000
44
0.0000000001
40
0.0000000000
40
0.0000000000
40
0.0000000000
40
0.0000000000
40
0.1200853619
40
0.5543890315
40
0.9784666092
40
1.0000000000
40
1.0000000000
40
1.0000000000
40
1.0000000000
10
300.3854834792
20
212.4950514305
30
0.0000000000
10
300.3853107616
20
212.4992801949
30
0.0000000000
10
300.3845257881
20
212.5188033187
30
0.0000000000
10
300.3832413854
20
212.5532645716
30
0.0000000000
10
300.3822270523
20
212.5842597778
30
0.0000000000
10
300.3817503659
20
212.5999576594
30
0.0000000000
10
300.3817274173
20
212.6007162354
30
0.0000000000
11
300.3854834792
21
212.4950514305
31
0.0000000000
11
300.3849733837
21
212.5077380492
31
0.0000000000
11
300.3832630994
21
212.5536259595
31
0.0000000000
11
300.3817965225
21
212.5984405153
31
0.0000000000
11
300.3817274173
21
212.6007162354
31
0.0000000000
0
SPLINE
5
47D
100
AcDbEntity
8
0
100
AcDbSpline
62
7
6
CONTINUOUS
70
0
71
3
72
11
73
7
74
5
42
0.0000001000
43
0.0000001000
44
0.0000000001
40
0.0000000000
40
0.0000000000
40
0.0000000000
40
0.0000000000
40
0.0624047572
40
0.4375234050
40
0.8126314775
40
1.0000000000
40
1.0000000000
40
1.0000000000
40
1.0000000000
10
122.0867740815
20
119.1891385198
30
0.0000000000
10
122.0717359701
20
119.1908009494
30
0.0000000000
10
121.9665732799
20
119.2048480782
30
0.0000000000
10
121.7764448792
20
119.2620907661
30
0.0000000000
10
121.5828707795
20
119.3846154659
30
0.0000000000
10
121.4846644815
20
119.4797674710
30
0.0000000000
10
121.4542626730
20
119.5134895829
30
0.0000000000
11
122.0867740815
21
119.1891385198
31
0.0000000000
11
122.0417937801
21
119.1951493017
31
0.0000000000
11
121.7816019083
21
119.2733899808
31
0.0000000000
11
121.5520808153
21
119.4187767736
31
0.0000000000
11
121.4542626730
21
119.5134895829
31
0.0000000000
0
SPLINE
5
47E
100
AcDbEntity
8
0
100
AcDbSpline
62
7
6
CONTINUOUS
70
0
71
3
72
8
73
4
74
2
42
0.0000001000
43
0.0000001000
44
0.0000000001
40
0.0000000000
40
0.0000000000
40
0.0000000000
40
0.0000000000
40
1.0000000000
40
1.0000000000
40
1.0000000000
40
1.0000000000
10
121.4542626730
20
119.5134895829
30
0.0000000000
10
121.4503524263
20
119.5178268833
30
0.0000000000
10
121.4464804272
20
119.5221976944
30
0.0000000000
10
121.4426473636
20
119.5266012153
30
0.0000000000
11
121.4542626730
21
119.5134895829
31
0.0000000000
11
121.4426473636
21
119.5266012153
31
0.0000000000
0
SPLINE
5
47F
100
AcDbEntity
8
0
100
AcDbSpline
62
7
6
CONTINUOUS
70
0
71
3
72
8
73
4
74
2
42
0.0000001000
43
0.0000001000
44
0.0000000001
40
0.0000000000
40
0.0000000000
40
0.0000000000
40
0.0000000000
40
1.0000000000
40
1.0000000000
40
1.0000000000
40
1.0000000000
10
121.4426473636
20
119.5266012153
30
0.0000000000
10
121.4166213416
20
119.5565005713
30
0.0000000000
10
121.3923903421
20
119.5879079287
30
0.0000000000
10
121.3701697459
20
119.6205725702
30
0.0000000000
11
121.4426473636
21
119.5266012153
31
0.0000000000
11
121.3701697459
21
119.6205725702
31
0.0000000000
0
SPLINE
5
480
100
AcDbEntity
8
0
100
AcDbSpline
62
7
6
CONTINUOUS
70
0
71
3
72
8
73
4
74
2
42
0.0000001000
43
0.0000001000
44
0.0000000001
40
0.0000000000
40
0.0000000000
40
0.0000000000
40
0.0000000000
40
1.0000000000
40
1.0000000000
40
1.0000000000
40
1.0000000000
10
100.6674985726
20
119.6206108811
30
0.0000000000
10
100.6420057211
20
119.5831322249
30
0.0000000000
10
100.6138663090
20
119.5473085197
30
0.0000000000
10
100.5834056220
20
119.5135184500
30
0.0000000000
11
100.6674985726
21
119.6206108811
31
0.0000000000
11
100.5834056220
21
119.5135184500
31
0.0000000000
0
SPLINE
5
481
100
AcDbEntity
8
0
100
AcDbSpline
62
7
6
CONTINUOUS
70
0
71
3
72
11
73
7
74
5
42
0.0000001000
43
0.0000001000
44
0.0000000001
40
0.0000000000
40
0.0000000000
40
0.0000000000
40
0.0000000000
40
0.1873684107
40
0.5624744262
40
0.9375884592
40
1.0000000000
40
1.0000000000
40
1.0000000000
40
1.0000000000
10
100.5834056220
20
119.5135184500
30
0.0000000000
10
100.5530035681
20
119.4797934220
30
0.0000000000
10
100.4547959037
20
119.3846333191
30
0.0000000000
10
100.2612161524
20
119.2620981065
30
0.0000000000
10
100.0710785458
20
119.2048497547
30
0.0000000000
10
99.9659099433
20
119.1908013178
30
0.0000000000
10
99.9508694200
20
119.1891386029
30
0.0000000000
11
100.5834056220
21
119.5135184500
31
0.0000000000
11
100.4855858296
21
119.4187973098
31
0.0000000000
11
100.2560578980
21
119.2733979385
31
0.0000000000
11
99.9958569112
21
119.1951505682
31
0.0000000000
11
99.9508694200
21
119.1891386029
31
0.0000000000
0
SPLINE
5
482
100
AcDbEntity
8
0
100
AcDbSpline
62
7
6
CONTINUOUS
70
0
71
3
72
11
73
7
74
5
42
0.0000001000
43
0.0000001000
44
0.0000000001
40
0.0000000000
40
0.0000000000
40
0.0000000000
40
0.0000000000
40
0.0624047572
40
0.4375234050
40
0.8126314775
40
1.0000000000
40
1.0000000000
40
1.0000000000
40
1.0000000000
10
99.9508681370
20
106.0377797470
30
0.0000000000
10
99.9659062483
20
106.0361173174
30
0.0000000000
10
100.0710689386
20
106.0220701887
30
0.0000000000
10
100.2611973393
20
105.9648275008
30
0.0000000000
10
100.4547714389
20
105.8423028010
30
0.0000000000
10
100.5529777369
20
105.7471507958
30
0.0000000000
10
100.5833795455
20
105.7134286839
30
0.0000000000
11
99.9508681370
21
106.0377797470
31
0.0000000000
11
99.9958484384
21
106.0317689652
31
0.0000000000
11
100.2560403101
21
105.9535282861
31
0.0000000000
11
100.4855614032
21
105.8081414933
31
0.0000000000
11
100.5833795455
21
105.7134286839
31
0.0000000000
0
SPLINE
5
483
100
AcDbEntity
8
0
100
AcDbSpline
62
7
6
CONTINUOUS
70
0
71
3
72
8
73
4
74
2
42
0.0000001000
43
0.0000001000
44
0.0000000001
40
0.0000000000
40
0.0000000000
40
0.0000000000
40
0.0000000000
40
1.0000000000
40
1.0000000000
40
1.0000000000
40
1.0000000000
10
100.5833795455
20
105.7134286839
30
0.0000000000
10
100.5872897921
20
105.7090913836
30
0.0000000000
10
100.5911617912
20
105.7047205725
30
0.0000000000
10
100.5949948548
20
105.7003170516
30
0.0000000000
11
100.5833795455
21
105.7134286839
31
0.0000000000
11
100.5949948548
21
105.7003170516
31
0.0000000000
0
SPLINE
5
484
100
AcDbEntity
8
0
100
AcDbSpline
62
7
6
CONTINUOUS
70
0
71
3
72
8
73
4
74
2
42
0.0000001000
43
0.0000001000
44
0.0000000001
40
0.0000000000
40
0.0000000000
40
0.0000000000
40
0.0000000000
40
1.0000000000
40
1.0000000000
40
1.0000000000
40
1.0000000000
10
100.5949948548
20
105.7003170516
30
0.0000000000
10
100.6210208768
20
105.6704176955
30
0.0000000000
10
100.6452518763
20
105.6390103381
30
0.0000000000
10
100.6674724725
20
105.6063456966
30
0.0000000000
11
100.5949948548
21
105.7003170516
31
0.0000000000
11
100.6674724725
21
105.6063456966
31
0.0000000000
0
SPLINE
5
485
100
AcDbEntity
8
0
100
AcDbSpline
62
7
6
CONTINUOUS
70
0
71
3
72
8
73
4
74
2
42
0.0000001000
43
0.0000001000
44
0.0000000001
40
0.0000000000
40
0.0000000000
40
0.0000000000
40
0.0000000000
40
1.0000000000
40
1.0000000000
40
1.0000000000
40
1.0000000000
10
121.3701436459
20
105.6063073858
30
0.0000000000
10
121.3956364973
20
105.6437860419
30
0.0000000000
10
121.4237759094
20
105.6796097471
30
0.0000000000
10
121.4542365964
20
105.7133998169
30
0.0000000000
11
121.3701436459
21
105.6063073858
31
0.0000000000
11
121.4542365964
21
105.7133998169
31
0.0000000000
0
SPLINE
5
486
100
AcDbEntity
8
0
100
AcDbSpline
62
7
6
CONTINUOUS
70
0
71
3
72
11
73
7
74
5
42
0.0000001000
43
0.0000001000
44
0.0000000001
40
0.0000000000
40
0.0000000000
40
0.0000000000
40
0.0000000000
40
0.1873684107
40
0.5624744262
40
0.9375884592
40
1.0000000000
40
1.0000000000
40
1.0000000000
40
1.0000000000
10
121.4542365964
20
105.7133998169
30
0.0000000000
10
121.4846386503
20
105.7471248449
30
0.0000000000
10
121.5828463147
20
105.8422849477
30
0.0000000000
10
121.7764260661
20
105.9648201603
30
0.0000000000
10
121.9665636726
20
106.0220685121
30
0.0000000000
10
122.0717322751
20
106.0361169491
30
0.0000000000
10
122.0867727984
20
106.0377796639
30
0.0000000000
11
121.4542365964
21
105.7133998169
31
0.0000000000
11
121.5520563888
21
105.8081209571
31
0.0000000000
11
121.7815843205
21
105.9535203284
31
0.0000000000
11
122.0417853072
21
106.0317676986
31
0.0000000000
11
122.0867727984
21
106.0377796639
31
0.0000000000
0
SPLINE
5
487
100
AcDbEntity
8
0
100
AcDbSpline
62
7
6
CONTINUOUS
70
0
71
3
72
16
73
12
74
10
42
0.0000001000
43
0.0000001000
44
0.0000000001
40
0.0000000000
40
0.0000000000
40
0.0000000000
40
0.0000000000
40
0.1276059151
40
0.2778766581
40
0.4196329826
40
0.5514673013
40
0.6722474272
40
0.7812454594
40
0.8780360433
40
0.9624510702
40
1.0000000000
40
1.0000000000
40
1.0000000000
40
1.0000000000
10
95.9592980239
20
106.2087626560
30
0.0000000000
10
96.1214453244
20
106.2087664536
30
0.0000000000
10
96.4745417969
20
106.2072132121
30
0.0000000000
10
97.0077191424
20
106.1997030862
30
0.0000000000
10
97.5461628559
20
106.1865726966
30
0.0000000000
10
98.0469883112
20
106.1691048960
30
0.0000000000
10
98.5060157592
20
106.1481634706
30
0.0000000000
10
98.9203180541
20
106.1245595480
30
0.0000000000
10
99.2882101587
20
106.0991227945
30
0.0000000000
10
99.5652350067
20
106.0762374838
30
0.0000000000
10
99.7195446235
20
106.0617034228
30
0.0000000000
10
99.7670288823
20
106.0570229006
30
0.0000000000
11
95.9592980239
21
106.2087626560
31
0.0000000000
11
96.4457349867
21
106.2066187120
31
0.0000000000
11
97.0185180271
21
106.1985391922
31
0.0000000000
11
97.5587381231
21
106.1852873779
31
0.0000000000
11
98.0609889249
21
106.1676783063
31
0.0000000000
11
98.5209249917
21
106.1465690213
31
0.0000000000
11
98.9357502564
21
106.1227897087
31
0.0000000000
11
99.3038299186
21
106.0971609611
31
0.0000000000
11
99.6245168248
21
106.0704843928
31
0.0000000000
11
99.7670288823
21
106.0570229006
31
0.0000000000
0
SPLINE
5
488
100
AcDbEntity
8
0
100
AcDbSpline
62
7
6
CONTINUOUS
70
0
71
3
72
8
73
4
74
2
42
0.0000001000
43
0.0000001000
44
0.0000000001
40
0.0000000000
40
0.0000000000
40
0.0000000000
40
0.0000000000
40
1.0000000000
40
1.0000000000
40
1.0000000000
40
1.0000000000
10
99.7670288823
20
106.0570229006
30
0.0000000000
10
99.8107299213
20
106.0527152903
30
0.0000000000
10
99.8544115646
20
106.0482332533
30
0.0000000000
10
99.8980664717
20
106.0435473794
30
0.0000000000
11
99.7670288823
21
106.0570229006
31
0.0000000000
11
99.8980664717
21
106.0435473794
31
0.0000000000
0
SPLINE
5
489
100
AcDbEntity
8
0
100
AcDbSpline
62
7
6
CONTINUOUS
70
0
71
3
72
8
73
4
74
2
42
0.0000001000
43
0.0000001000
44
0.0000000001
40
0.0000000000
40
0.0000000000
40
0.0000000000
40
0.0000000000
40
1.0000000000
40
1.0000000000
40
1.0000000000
40
1.0000000000
10
99.8980664717
20
106.0435473794
30
0.0000000000
10
99.9157067768
20
106.0416538867
30
0.0000000000
10
99.9333427163
20
106.0397271105
30
0.0000000000
10
99.9509749470
20
106.0377655830
30
0.0000000000
11
99.8980664717
21
106.0435473794
31
0.0000000000
11
99.9509749470
21
106.0377655830
31
0.0000000000
0
SPLINE
5
48A
100
AcDbEntity
8
0
100
AcDbSpline
62
7
6
CONTINUOUS
70
0
71
3
72
9
73
5
74
3
42
0.0000001000
43
0.0000001000
44
0.0000000001
40
0.0000000000
40
0.0000000000
40
0.0000000000
40
0.0000000000
40
0.2637408053
40
1.0000000000
40
1.0000000000
40
1.0000000000
40
1.0000000000
10
95.0160347654
20
106.2322594943
30
0.0000000000
10
95.0346719658
20
106.2281473950
30
0.0000000000
10
95.1058017453
20
106.2145815703
30
0.0000000000
10
95.1783035357
20
106.2088208867
30
0.0000000000
10
95.2316121651
20
106.2088103298
30
0.0000000000
11
95.0160347654
21
106.2322594943
31
0.0000000000
11
95.0722870525
21
106.2215345914
31
0.0000000000
11
95.2316121651
21
106.2088103298
31
0.0000000000
0
SPLINE
5
48B
100
AcDbEntity
8
0
100
AcDbSpline
62
7
6
CONTINUOUS
70
0
71
3
72
8
73
4
74
2
42
0.0000001000
43
0.0000001000
44
0.0000000001
40
0.0000000000
40
0.0000000000
40
0.0000000000
40
0.0000000000
40
1.0000000000
40
1.0000000000
40
1.0000000000
40
1.0000000000
10
95.2316121554
20
119.0181575050
30
0.0000000000
10
95.1594253226
20
119.0181575050
30
0.0000000000
10
95.0869563028
20
119.0102584592
30
0.0000000000
10
95.0162201986
20
118.9946772674
30
0.0000000000
11
95.2316121554
21
119.0181575050
31
0.0000000000
11
95.0162201986
21
118.9946772674
31
0.0000000000
0
SPLINE
5
48C
100
AcDbEntity
8
0
100
AcDbSpline
62
7
6
CONTINUOUS
70
0
71
3
72
8
73
4
74
2
42
0.0000001000
43
0.0000001000
44
0.0000000001
40
0.0000000000
40
0.0000000000
40
0.0000000000
40
0.0000000000
40
1.0000000000
40
1.0000000000
40
1.0000000000
40
1.0000000000
10
99.9509747219
20
119.1891562246
30
0.0000000000
10
99.9403670417
20
119.1879726115
30
0.0000000000
10
99.9297593443
20
119.1868019856
30
0.0000000000
10
99.9191550514
20
119.1856447958
30
0.0000000000
11
99.9509747219
21
119.1891562246
31
0.0000000000
11
99.9191550514
21
119.1856447958
31
0.0000000000
0
SPLINE
5
48D
100
AcDbEntity
8
0
100
AcDbSpline
62
7
6
CONTINUOUS
70
0
71
3
72
8
73
4
74
2
42
0.0000001000
43
0.0000001000
44
0.0000000001
40
0.0000000000
40
0.0000000000
40
0.0000000000
40
0.0000000000
40
1.0000000000
40
1.0000000000
40
1.0000000000
40
1.0000000000
10
99.9191550514
20
119.1856447958
30
0.0000000000
10
99.8754683856
20
119.1808775032
30
0.0000000000
10
99.8318395025
20
119.1763382483
30
0.0000000000
10
99.7882250221
20
119.1719849489
30
0.0000000000
11
99.9191550514
21
119.1856447958
31
0.0000000000
11
99.7882250221
21
119.1719849489
31
0.0000000000
0
SPLINE
5
48E
100
AcDbEntity
8
0
100
AcDbSpline
62
7
6
CONTINUOUS
70
0
71
3
72
8
73
4
74
2
42
0.0000001000
43
0.0000001000
44
0.0000000001
40
0.0000000000
40
0.0000000000
40
0.0000000000
40
0.0000000000
40
1.0000000000
40
1.0000000000
40
1.0000000000
40
1.0000000000
10
99.7882250221
20
119.1719849489
30
0.0000000000
10
99.7785443250
20
119.1710186879
30
0.0000000000
10
99.7688643374
20
119.1700615883
30
0.0000000000
10
99.7591845850
20
119.1691131899
30
0.0000000000
11
99.7882250221
21
119.1719849489
31
0.0000000000
11
99.7591845850
21
119.1691131899
31
0.0000000000
0
SPLINE
5
48F
100
AcDbEntity
8
0
100
AcDbSpline
62
7
6
CONTINUOUS
70
0
71
3
72
16
73
12
74
10
42
0.0000001000
43
0.0000001000
44
0.0000000001
40
0.0000000000
40
0.0000000000
40
0.0000000000
40
0.0000000000
40
0.0299855386
40
0.1146511382
40
0.2119748078
40
0.3218327403
40
0.4437978879
40
0.5771288353
40
0.7206603605
40
0.8729323081
40
1.0000000000
40
1.0000000000
40
1.0000000000
40
1.0000000000
10
99.7591845850
20
119.1691131899
30
0.0000000000
10
99.7213643968
20
119.1654076605
30
0.0000000000
10
99.5767708305
20
119.1517472769
30
0.0000000000
10
99.3087687068
20
119.1293394986
30
0.0000000000
10
98.9396186081
20
119.1035650782
30
0.0000000000
10
98.5228941367
20
119.0796057217
30
0.0000000000
10
98.0603309157
20
119.0583336331
30
0.0000000000
10
97.5548827297
20
119.0405844260
30
0.0000000000
10
97.0108561442
20
119.0272543007
30
0.0000000000
10
96.4746618691
20
119.0197004258
30
0.0000000000
10
96.1204315855
20
119.0181518868
30
0.0000000000
10
95.9592980537
20
119.0181556319
30
0.0000000000
11
99.7591845850
21
119.1691131899
31
0.0000000000
11
99.6457064981
21
119.1583676467
31
0.0000000000
11
99.3247502569
21
119.1313627337
31
0.0000000000
11
98.9554179963
21
119.1053816920
31
0.0000000000
11
98.5381870173
21
119.0812438447
31
0.0000000000
11
98.0746952892
21
119.0597970254
31
0.0000000000
11
97.5677849122
21
119.0419014005
31
0.0000000000
11
97.0219188846
21
119.0284450863
31
0.0000000000
11
96.4426937959
21
119.0202728008
31
0.0000000000
11
95.9592980537
21
119.0181556319
31
0.0000000000
0
SPLINE
5
490
100
AcDbEntity
8
0
100
AcDbSpline
62
7
6
CONTINUOUS
70
0
71
3
72
16
73
12
74
10
42
0.0000001000
43
0.0000001000
44
0.0000000001
40
0.0000000000
40
0.0000000000
40
0.0000000000
40
0.0000000000
40
0.1276059151
40
0.2778766581
40
0.4196329826
40
0.5514673013
40
0.6722474272
40
0.7812454594
40
0.8780360433
40
0.9624510702
40
1.0000000000
40
1.0000000000
40
1.0000000000
40
1.0000000000
10
126.0783441946
20
119.0181556109
30
0.0000000000
10
125.9161968940
20
119.0181518133
30
0.0000000000
10
125.5631004216
20
119.0197050547
30
0.0000000000
10
125.0299230760
20
119.0272151807
30
0.0000000000
10
124.4914793625
20
119.0403455703
30
0.0000000000
10
123.9906539072
20
119.0578133709
30
0.0000000000
10
123.5316264593
20
119.0787547962
30
0.0000000000
10
123.1173241643
20
119.1023587189
30
0.0000000000
10
122.7494320597
20
119.1277954724
30
0.0000000000
10
122.4724072117
20
119.1506807831
30
0.0000000000
10
122.3180975949
20
119.1652148441
30
0.0000000000
10
122.2706133361
20
119.1698953662
30
0.0000000000
11
126.0783441946
21
119.0181556109
31
0.0000000000
11
125.5919072318
21
119.0202995548
31
0.0000000000
11
125.0191241914
21
119.0283790747
31
0.0000000000
11
124.4789040954
21
119.0416308889
31
0.0000000000
11
123.9766532936
21
119.0592399605
31
0.0000000000
11
123.5167172267
21
119.0803492456
31
0.0000000000
11
123.1018919620
21
119.1041285582
31
0.0000000000
11
122.7338122999
21
119.1297573058
31
0.0000000000
11
122.4131253937
21
119.1564338740
31
0.0000000000
11
122.2706133361
21
119.1698953662
31
0.0000000000
0
SPLINE
5
491
100
AcDbEntity
8
0
100
AcDbSpline
62
7
6
CONTINUOUS
70
0
71
3
72
8
73
4
74
2
42
0.0000001000
43
0.0000001000
44
0.0000000001
40
0.0000000000
40
0.0000000000
40
0.0000000000
40
0.0000000000
40
1.0000000000
40
1.0000000000
40
1.0000000000
40
1.0000000000
10
122.2706133361
20
119.1698953662
30
0.0000000000
10
122.2269122971
20
119.1742029765
30
0.0000000000
10
122.1832306539
20
119.1786850135
30
0.0000000000
10
122.1395757467
20
119.1833708875
30
0.0000000000
11
122.2706133361
21
119.1698953662
31
0.0000000000
11
122.1395757467
21
119.1833708875
31
0.0000000000
0
SPLINE
5
492
100
AcDbEntity
8
0
100
AcDbSpline
62
7
6
CONTINUOUS
70
0
71
3
72
8
73
4
74
2
42
0.0000001000
43
0.0000001000
44
0.0000000001
40
0.0000000000
40
0.0000000000
40
0.0000000000
40
0.0000000000
40
1.0000000000
40
1.0000000000
40
1.0000000000
40
1.0000000000
10
122.1395757467
20
119.1833708875
30
0.0000000000
10
122.1219354416
20
119.1852643802
30
0.0000000000
10
122.1042995022
20
119.1871911563
30
0.0000000000
10
122.0866672715
20
119.1891526838
30
0.0000000000
11
122.1395757467
21
119.1833708875
31
0.0000000000
11
122.0866672715
21
119.1891526838
31
0.0000000000
0
SPLINE
5
493
100
AcDbEntity
8
0
100
AcDbSpline
62
7
6
CONTINUOUS
70
0
71
3
72
9
73
5
74
3
42
0.0000001000
43
0.0000001000
44
0.0000000001
40
0.0000000000
40
0.0000000000
40
0.0000000000
40
0.0000000000
40
0.2637408053
40
1.0000000000
40
1.0000000000
40
1.0000000000
40
1.0000000000
10
127.0216074530
20
118.9946587726
30
0.0000000000
10
127.0029702526
20
118.9987708718
30
0.0000000000
10
126.9318404731
20
119.0123366966
30
0.0000000000
10
126.8593386827
20
119.0180973802
30
0.0000000000
10
126.8060300533
20
119.0181079371
30
0.0000000000
11
127.0216074530
21
118.9946587726
31
0.0000000000
11
126.9653551660
21
119.0053836755
31
0.0000000000
11
126.8060300533
21
119.0181079371
31
0.0000000000
0
SPLINE
5
494
100
AcDbEntity
8
0
100
AcDbSpline
62
7
6
CONTINUOUS
70
0
71
3
72
8
73
4
74
2
42
0.0000001000
43
0.0000001000
44
0.0000000001
40
0.0000000000
40
0.0000000000
40
0.0000000000
40
0.0000000000
40
1.0000000000
40
1.0000000000
40
1.0000000000
40
1.0000000000
10
126.8060300630
20
106.2087607618
30
0.0000000000
10
126.8782168959
20
106.2087607618
30
0.0000000000
10
126.9506859156
20
106.2166598077
30
0.0000000000
10
127.0214220198
20
106.2322409995
30
0.0000000000
11
126.8060300630
21
106.2087607618
31
0.0000000000
11
127.0214220198
21
106.2322409995
31
0.0000000000
0
SPLINE
5
495
100
AcDbEntity
8
0
100
AcDbSpline
62
7
6
CONTINUOUS
70
0
71
3
72
8
73
4
74
2
42
0.0000001000
43
0.0000001000
44
0.0000000001
40
0.0000000000
40
0.0000000000
40
0.0000000000
40
0.0000000000
40
1.0000000000
40
1.0000000000
40
1.0000000000
40
1.0000000000
10
122.0866674966
20
106.0377620423
30
0.0000000000
10
122.0972751767
20
106.0389456553
30
0.0000000000
10
122.1078828742
20
106.0401162813
30
0.0000000000
10
122.1184871671
20
106.0412734711
30
0.0000000000
11
122.0866674966
21
106.0377620423
31
0.0000000000
11
122.1184871671
21
106.0412734711
31
0.0000000000
0
SPLINE
5
496
100
AcDbEntity
8
0
100
AcDbSpline
62
7
6
CONTINUOUS
70
0
71
3
72
8
73
4
74
2
42
0.0000001000
43
0.0000001000
44
0.0000000001
40
0.0000000000
40
0.0000000000
40
0.0000000000
40
0.0000000000
40
1.0000000000
40
1.0000000000
40
1.0000000000
40
1.0000000000
10
122.1184871671
20
106.0412734711
30
0.0000000000
10
122.1621738328
20
106.0460407636
30
0.0000000000
10
122.2058027159
20
106.0505800186
30
0.0000000000
10
122.2494171963
20
106.0549333179
30
0.0000000000
11
122.1184871671
21
106.0412734711
31
0.0000000000
11
122.2494171963
21
106.0549333179
31
0.0000000000
0
SPLINE
5
497
100
AcDbEntity
8
0
100
AcDbSpline
62
7
6
CONTINUOUS
70
0
71
3
72
8
73
4
74
2
42
0.0000001000
43
0.0000001000
44
0.0000000001
40
0.0000000000
40
0.0000000000
40
0.0000000000
40
0.0000000000
40
1.0000000000
40
1.0000000000
40
1.0000000000
40
1.0000000000
10
122.2494171963
20
106.0549333179
30
0.0000000000
10
122.2590978935
20
106.0558995789
30
0.0000000000
10
122.2687778810
20
106.0568566786
30
0.0000000000
10
122.2784576334
20
106.0578050770
30
0.0000000000
11
122.2494171963
21
106.0549333179
31
0.0000000000
11
122.2784576334
21
106.0578050770
31
0.0000000000
0
SPLINE
5
498
100
AcDbEntity
8
0
100
AcDbSpline
62
7
6
CONTINUOUS
70
0
71
3
72
16
73
12
74
10
42
0.0000001000
43
0.0000001000
44
0.0000000001
40
0.0000000000
40
0.0000000000
40
0.0000000000
40
0.0000000000
40
0.0299855386
40
0.1146511382
40
0.2119748078
40
0.3218327403
40
0.4437978879
40
0.5771288353
40
0.7206603605
40
0.8729323081
40
1.0000000000
40
1.0000000000
40
1.0000000000
40
1.0000000000
10
122.2784576334
20
106.0578050770
30
0.0000000000
10
122.3162778217
20
106.0615106064
30
0.0000000000
10
122.4608713879
20
106.0751709899
30
0.0000000000
10
122.7288735117
20
106.0975787682
30
0.0000000000
10
123.0980236104
20
106.1233531887
30
0.0000000000
10
123.5147480817
20
106.1473125452
30
0.0000000000
10
123.9773113028
20
106.1685846338
30
0.0000000000
10
124.4827594887
20
106.1863338408
30
0.0000000000
10
125.0267860743
20
106.1996639662
30
0.0000000000
10
125.5629803493
20
106.2072178411
30
0.0000000000
10
125.9172106329
20
106.2087663800
30
0.0000000000
10
126.0783441647
20
106.2087626350
30
0.0000000000
11
122.2784576334
21
106.0578050770
31
0.0000000000
11
122.3919357204
21
106.0685506201
31
0.0000000000
11
122.7128919615
21
106.0955555332
31
0.0000000000
11
123.0822242221
21
106.1215365749
31
0.0000000000
11
123.4994552011
21
106.1456744222
31
0.0000000000
11
123.9629469292
21
106.1671212415
31
0.0000000000
11
124.4698573062
21
106.1850168663
31
0.0000000000
11
125.0157233338
21
106.1984731806
31
0.0000000000
11
125.5949484225
21
106.2066454660
31
0.0000000000
11
126.0783441647
21
106.2087626350
31
0.0000000000
0
SPLINE
5
499
100
AcDbEntity
8
0
100
AcDbSpline
62
7
6
CONTINUOUS
70
0
71
3
72
8
73
4
74
2
42
0.0000001000
43
0.0000001000
44
0.0000000001
40
0.0000000000
40
0.0000000000
40
0.0000000000
40
0.0000000000
40
1.0000000000
40
1.0000000000
40
1.0000000000
40
1.0000000000
10
133.8510362228
20
117.3013651972
30
0.0000000000
10
133.8380684374
20
117.3151792388
30
0.0000000000
10
133.8247163205
20
117.3286327809
30
0.0000000000
10
133.8110031792
20
117.3417073532
30
0.0000000000
11
133.8510362228
21
117.3013651972
31
0.0000000000
11
133.8110031792
21
117.3417073532
31
0.0000000000
0
SPLINE
5
49A
100
AcDbEntity
8
0
100
AcDbSpline
62
7
6
CONTINUOUS
70
0
71
3
72
8
73
4
74
2
42
0.0000001000
43
0.0000001000
44
0.0000000001
40
0.0000000000
40
0.0000000000
40
0.0000000000
40
0.0000000000
40
1.0000000000
40
1.0000000000
40
1.0000000000
40
1.0000000000
10
133.8110031792
20
117.3417073532
30
0.0000000000
10
133.8035146107
20
117.3488472073
30
0.0000000000
10
133.7959183808
20
117.3558740485
30
0.0000000000
10
133.7882182850
20
117.3627848688
30
0.0000000000
11
133.8110031792
21
117.3417073532
31
0.0000000000
11
133.7882182850
21
117.3627848688
31
0.0000000000
0
SPLINE
5
49B
100
AcDbEntity
8
0
100
AcDbSpline
62
7
6
CONTINUOUS
70
0
71
3
72
8
73
4
74
2
42
0.0000001000
43
0.0000001000
44
0.0000000001
40
0.0000000000
40
0.0000000000
40
0.0000000000
40
0.0000000000
40
1.0000000000
40
1.0000000000
40
1.0000000000
40
1.0000000000
10
133.7882182850
20
117.3627848688
30
0.0000000000
10
133.7628547685
20
117.3855485730
30
0.0000000000
10
133.7363643148
20
117.4070534593
30
0.0000000000
10
133.7088825721
20
117.4271920288
30
0.0000000000
11
133.7882182850
21
117.3627848688
31
0.0000000000
11
133.7088825721
21
117.4271920288
31
0.0000000000
0
SPLINE
5
49C
100
AcDbEntity
8
0
100
AcDbSpline
62
7
6
CONTINUOUS
70
0
71
3
72
10
73
6
74
4
42
0.0000001000
43
0.0000001000
44
0.0000000001
40
0.0000000000
40
0.0000000000
40
0.0000000000
40
0.0000000000
40
0.4298570018
40
0.7987101161
40
1.0000000000
40
1.0000000000
40
1.0000000000
40
1.0000000000
10
133.7088825721
20
117.4271920288
30
0.0000000000
10
133.6522681608
20
117.4686789634
30
0.0000000000
10
133.5392570345
20
117.5349910176
30
0.0000000000
10
133.3856837324
20
117.5913680227
30
0.0000000000
10
133.2954707651
20
117.6139796144
30
0.0000000000
10
133.2634171027
20
117.6210154426
30
0.0000000000
11
133.7088825721
21
117.4271920288
31
0.0000000000
11
133.5278305393
21
117.5338911853
31
0.0000000000
11
133.3588395887
21
117.5968254575
31
0.0000000000
11
133.2634171027
21
117.6210154426
31
0.0000000000
0
SPLINE
5
49D
100
AcDbEntity
8
0
100
AcDbSpline
62
7
6
CONTINUOUS
70
0
71
3
72
10
73
6
74
4
42
0.0000001000
43
0.0000001000
44
0.0000000001
40
0.0000000000
40
0.0000000000
40
0.0000000000
40
0.0000000000
40
0.1955696080
40
0.5686788886
40
1.0000000000
40
1.0000000000
40
1.0000000000
40
1.0000000000
10
88.7741518976
20
117.6209997665
30
0.0000000000
10
88.7483152741
20
117.6153275123
30
0.0000000000
10
88.6735744743
20
117.5970427468
30
0.0000000000
10
88.5450929633
20
117.5538271845
30
0.0000000000
10
88.4476516086
20
117.5044151765
30
0.0000000000
10
88.3979489987
20
117.4737612501
30
0.0000000000
11
88.7741518976
21
117.6209997665
31
0.0000000000
11
88.6971065322
21
117.6020071627
31
0.0000000000
11
88.5538441706
21
117.5531916388
31
0.0000000000
11
88.3979489987
21
117.4737612501
31
0.0000000000
0
SPLINE
5
49E
100
AcDbEntity
8
0
100
AcDbSpline
62
7
6
CONTINUOUS
70
0
71
3
72
8
73
4
74
2
42
0.0000001000
43
0.0000001000
44
0.0000000001
40
0.0000000000
40
0.0000000000
40
0.0000000000
40
0.0000000000
40
1.0000000000
40
1.0000000000
40
1.0000000000
40
1.0000000000
10
88.3979489987
20
117.4737612501
30
0.0000000000
10
88.3445878758
20
117.4408509473
30
0.0000000000
10
88.2941586999
20
117.4031455749
30
0.0000000000
10
88.2475793889
20
117.3611454600
30
0.0000000000
11
88.3979489987
21
117.4737612501
31
0.0000000000
11
88.2475793889
21
117.3611454600
31
0.0000000000
0
SPLINE
5
49F
100
AcDbEntity
8
0
100
AcDbSpline
62
7
6
CONTINUOUS
70
0
71
3
72
8
73
4
74
2
42
0.0000001000
43
0.0000001000
44
0.0000000001
40
0.0000000000
40
0.0000000000
40
0.0000000000
40
0.0000000000
40
1.0000000000
40
1.0000000000
40
1.0000000000
40
1.0000000000
10
88.2475793889
20
117.3611454600
30
0.0000000000
10
88.2455050977
20
117.3592750916
30
0.0000000000
10
88.2434384413
20
117.3573962061
30
0.0000000000
10
88.2413795007
20
117.3555088477
30
0.0000000000
11
88.2475793889
21
117.3611454600
31
0.0000000000
11
88.2413795007
21
117.3555088477
31
0.0000000000
0
SPLINE
5
4A0
100
AcDbEntity
8
0
100
AcDbSpline
62
7
6
CONTINUOUS
70
0
71
3
72
8
73
4
74
2
42
0.0000001000
43
0.0000001000
44
0.0000000001
40
0.0000000000
40
0.0000000000
40
0.0000000000
40
0.0000000000
40
1.0000000000
40
1.0000000000
40
1.0000000000
40
1.0000000000
10
88.2413795007
20
117.3555088477
30
0.0000000000
10
88.2369025275
20
117.3514049639
30
0.0000000000
10
88.2324620353
20
117.3472610199
30
0.0000000000
10
88.2280587131
20
117.3430777266
30
0.0000000000
11
88.2413795007
21
117.3555088477
31
0.0000000000
11
88.2280587131
21
117.3430777266
31
0.0000000000
0
SPLINE
5
4A1
100
AcDbEntity
8
0
100
AcDbSpline
62
7
6
CONTINUOUS
70
0
71
3
72
8
73
4
74
2
42
0.0000001000
43
0.0000001000
44
0.0000000001
40
0.0000000000
40
0.0000000000
40
0.0000000000
40
0.0000000000
40
1.0000000000
40
1.0000000000
40
1.0000000000
40
1.0000000000
10
88.1866401428
20
107.9255167086
30
0.0000000000
10
88.1996106487
20
107.9117011200
30
0.0000000000
10
88.2129655882
20
107.8982461618
30
0.0000000000
10
88.2266816423
20
107.8851703121
30
0.0000000000
11
88.1866401428
21
107.9255167086
31
0.0000000000
11
88.2266816423
21
107.8851703121
31
0.0000000000
0
SPLINE
5
4A2
100
AcDbEntity
8
0
100
AcDbSpline
62
7
6
CONTINUOUS
70
0
71
3
72
8
73
4
74
2
42
0.0000001000
43
0.0000001000
44
0.0000000001
40
0.0000000000
40
0.0000000000
40
0.0000000000
40
0.0000000000
40
1.0000000000
40
1.0000000000
40
1.0000000000
40
1.0000000000
10
88.2266816423
20
107.8851703121
30
0.0000000000
10
88.2349781509
20
107.8772610477
30
0.0000000000
10
88.2434067822
20
107.8694904895
30
0.0000000000
10
88.2519623754
20
107.8618627270
30
0.0000000000
11
88.2266816423
21
107.8851703121
31
0.0000000000
11
88.2519623754
21
107.8618627270
31
0.0000000000
0
SPLINE
5
4A3
100
AcDbEntity
8
0
100
AcDbSpline
62
7
6
CONTINUOUS
70
0
71
3
72
8
73
4
74
2
42
0.0000001000
43
0.0000001000
44
0.0000000001
40
0.0000000000
40
0.0000000000
40
0.0000000000
40
0.0000000000
40
1.0000000000
40
1.0000000000
40
1.0000000000
40
1.0000000000
10
88.2519623754
20
107.8618627270
30
0.0000000000
10
88.2765630778
20
107.8399299038
30
0.0000000000
10
88.3022134883
20
107.8191776993
30
0.0000000000
10
88.3287909202
20
107.7997033329
30
0.0000000000
11
88.2519623754
21
107.8618627270
31
0.0000000000
11
88.3287909202
21
107.7997033329
31
0.0000000000
0
SPLINE
5
4A4
100
AcDbEntity
8
0
100
AcDbSpline
62
7
6
CONTINUOUS
70
0
71
3
72
10
73
6
74
4
42
0.0000001000
43
0.0000001000
44
0.0000000001
40
0.0000000000
40
0.0000000000
40
0.0000000000
40
0.0000000000
40
0.4299047624
40
0.7987704665
40
1.0000000000
40
1.0000000000
40
1.0000000000
40
1.0000000000
10
88.3287909202
20
107.7997033329
30
0.0000000000
10
88.3854088753
20
107.7582170519
30
0.0000000000
10
88.4984226831
20
107.6919095928
30
0.0000000000
10
88.6519862595
20
107.6355424586
30
0.0000000000
10
88.7421850436
20
107.6129356966
30
0.0000000000
10
88.7742266582
20
107.6059025441
30
0.0000000000
11
88.3287909202
21
107.7997033329
31
0.0000000000
11
88.5098535634
21
107.6930076447
31
0.0000000000
11
88.6788396906
21
107.6300820460
31
0.0000000000
11
88.7742266582
21
107.6059025441
31
0.0000000000
0
SPLINE
5
4A5
100
AcDbEntity
8
0
100
AcDbSpline
62
7
6
CONTINUOUS
70
0
71
3
72
10
73
6
74
4
42
0.0000001000
43
0.0000001000
44
0.0000000001
40
0.0000000000
40
0.0000000000
40
0.0000000000
40
0.0000000000
40
0.1956309621
40
0.5687368118
40
1.0000000000
40
1.0000000000
40
1.0000000000
40
1.0000000000
10
133.2634910281
20
107.6059186073
30
0.0000000000
10
133.2893347809
20
107.6115924416
30
0.0000000000
10
133.3640802508
20
107.6298789843
30
0.0000000000
10
133.4925561959
20
107.6730949648
30
0.0000000000
10
133.5899862477
20
107.7225013399
30
0.0000000000
10
133.6396807067
20
107.7531492855
30
0.0000000000
11
133.2634910281
21
107.6059186073
31
0.0000000000
11
133.3405574952
21
107.6249171074
31
0.0000000000
11
133.4838123703
21
107.6737325501
31
0.0000000000
11
133.6396807067
21
107.7531492855
31
0.0000000000
0
SPLINE
5
4A6
100
AcDbEntity
8
0
100
AcDbSpline
62
7
6
CONTINUOUS
70
0
71
3
72
8
73
4
74
2
42
0.0000001000
43
0.0000001000
44
0.0000000001
40
0.0000000000
40
0.0000000000
40
0.0000000000
40
0.0000000000
40
1.0000000000
40
1.0000000000
40
1.0000000000
40
1.0000000000
10
133.6396807067
20
107.7531492855
30
0.0000000000
10
133.6930183783
20
107.7860441008
30
0.0000000000
10
133.7434268022
20
107.8237297038
30
0.0000000000
10
133.7899892831
20
107.8657064886
30
0.0000000000
11
133.6396807067
21
107.7531492855
31
0.0000000000
11
133.7899892831
21
107.8657064886
31
0.0000000000
0
SPLINE
5
4A7
100
AcDbEntity
8
0
100
AcDbSpline
62
7
6
CONTINUOUS
70
0
71
3
72
8
73
4
74
2
42
0.0000001000
43
0.0000001000
44
0.0000000001
40
0.0000000000
40
0.0000000000
40
0.0000000000
40
0.0000000000
40
1.0000000000
40
1.0000000000
40
1.0000000000
40
1.0000000000
10
133.7899892831
20
107.8657064886
30
0.0000000000
10
133.7920750184
20
107.8675868107
30
0.0000000000
10
133.7941530366
20
107.8694757432
30
0.0000000000
10
133.7962232555
20
107.8713732412
30
0.0000000000
11
133.7899892831
21
107.8657064886
31
0.0000000000
11
133.7962232555
21
107.8713732412
31
0.0000000000
0
SPLINE
5
4A8
100
AcDbEntity
8
0
100
AcDbSpline
62
7
6
CONTINUOUS
70
0
71
3
72
8
73
4
74
2
42
0.0000001000
43
0.0000001000
44
0.0000000001
40
0.0000000000
40
0.0000000000
40
0.0000000000
40
0.0000000000
40
1.0000000000
40
1.0000000000
40
1.0000000000
40
1.0000000000
10
133.7962232555
20
107.8713732412
30
0.0000000000
10
133.8007128118
20
107.8754882283
30
0.0000000000
10
133.8051656875
20
107.8796434988
30
0.0000000000
10
133.8095811880
20
107.8838383360
30
0.0000000000
11
133.7962232555
21
107.8713732412
31
0.0000000000
11
133.8095811880
21
107.8838383360
31
0.0000000000
0
ENDSEC
0
SECTION
2
OBJECTS
0
DICTIONARY
5
4A9
100
AcDbDictionary
3
ACAD_GROUP
350
4AA
3
ACAD_MLINESTYLE
350
4AB
0
DICTIONARY
5
4AA
102
{ACAD_REACTORS
330
4A9
102
}
100
AcDbDictionary
0
DICTIONARY
5
4AB
102
{ACAD_REACTORS
330
4A9
102
}
100
AcDbDictionary
3
STANDARD
350
4AC
0
MLINESTYLE
5
4AC
102
{ACAD_REACTORS
330
4AB
102
}
100
AcDbMlineStyle
2
STANDARD
70
0
3

62
256
51
90.0
52
90.0
71
2
49
0.5
62
256
6
BYLAYER
49
-0.5
62
256
6
BYLAYER
0
ENDSEC
0
EOF
