999
DXF file: C:\Aktuell-Internet\CAD-Daten\2rm-m6.dxf
999
Pro/ENGINEER 2001400 by Parametric Technology Corporation
0
SECTION
2
HEADER
9
$ACADVER
1
AC1014
9
$EXTMAX
10
420.0000000000
20
297.0000000000
9
$EXTMIN
10
0.0000000000
20
0.0000000000
9
$LIMMIN
10
0.0000000000
20
0.0000000000
9
$LIMMAX
10
420.0000000000
20
297.0000000000
9
$VIEWCTR
10
210.0000000000
20
148.5000000000
9
$VIEWSIZE
40
297.0000000000
9
$CLAYER
8
0
9
$LTSCALE
40
23.1000000000
9
$CELTYPE
6
BYLAYER
9
$DIMSCALE
40
1
9
$DIMASZ
40
3.5000000000
9
$DIMEXO
40
2.6250000000
9
$DIMDLI
40
15.9600000000
9
$DIMEXE
40
7.5600000000
9
$DIMCEN
40
3.7800000000
9
$DIMLFAC
40
1.0000000000
9
$DIMTXT
40
3.5000000000
9
$DIMTOL
70
1
9
$DIMTFAC
40
0.6000000000
9
$DIMTP
40
0.0050000000
9
$DIMTM
40
0.0050000000
9
$HANDSEED
5
45A
0
ENDSEC
0
SECTION
2
CLASSES
0
ENDSEC
0
SECTION
2
TABLES
0
TABLE
2
VPORT
5
8
100
AcDbSymbolTable
70
2
0
VPORT
5
1F4
100
AcDbSymbolTableRecord
100
AcDbViewportTableRecord
2
*ACTIVE
70
0
10
0.0
20
0.0
11
1.0
21
1.0
12
210.0000000000
22
148.5000000000
13
0.0
23
0.0
14
1.0
24
1.0
15
0.0
25
0.0
16
0.0
26
0.0
36
1.0
17
0.0
27
0.0
37
0.0
40
297.0000000000
41
1.4141414141
42
50.0
43
0.0
44
0.0
50
0.0
51
0.0
71
0
72
100
73
1
74
1
75
0
76
0
77
0
78
0
0
ENDTAB
0
TABLE
2
LTYPE
5
5
100
AcDbSymbolTable
70
6
0
LTYPE
5
14
100
AcDbSymbolTableRecord
100
AcDbLinetypeTableRecord
2
BYBLOCK
70
0
3

72
65
73
0
40
0.0
0
LTYPE
5
15
100
AcDbSymbolTableRecord
100
AcDbLinetypeTableRecord
2
BYLAYER
70
0
3

72
65
73
0
40
0.0
0
LTYPE
5
16
100
AcDbSymbolTableRecord
100
AcDbLinetypeTableRecord
2
CONTINUOUS
70
64
3
Solid line
72
65
73
0
40
0
0
LTYPE
5
1F5
100
AcDbSymbolTableRecord
100
AcDbLinetypeTableRecord
2
CENTER
70
64
3
____ _ ____ _ ____ _ ____ _ ____ _ ____ _ ____
72
65
73
4
40
0.6
49
0.375
74
0
49
-0.075
74
0
49
0.075
74
0
49
-0.075
74
0
0
LTYPE
5
1F6
100
AcDbSymbolTableRecord
100
AcDbLinetypeTableRecord
2
HIDDEN
70
64
3
- - - - - - - - - - - - - - - - - - - -
72
65
73
2
40
0.2
49
0.1
74
0
49
-0.1
74
0
0
LTYPE
5
1F7
100
AcDbSymbolTableRecord
100
AcDbLinetypeTableRecord
2
PHANTOM
70
64
3
_____ _ _ _____ _ _ _____ _ _ _____
72
65
73
6
40
0.8
49
0.45
74
0
49
-0.05
74
0
49
0.1
74
0
49
-0.05
74
0
49
0.1
74
0
49
-0.05
74
0
0
LTYPE
5
1F8
100
AcDbSymbolTableRecord
100
AcDbLinetypeTableRecord
2
DOT
70
64
3
. . . . . . . . . . . . . . . . . . . .
72
65
73
2
40
0.2
49
0.1
74
0
49
-0.1
74
0
0
LTYPE
5
1F9
100
AcDbSymbolTableRecord
100
AcDbLinetypeTableRecord
2
DASHED
70
64
3
- - - - - - - - - - - - - - - - - - - -
72
65
73
2
40
0.2
49
0.1
74
0
49
-0.1
74
0
0
ENDTAB
0
TABLE
2
LAYER
5
2
100
AcDbSymbolTable
70
36
0
LAYER
5
10
100
AcDbSymbolTableRecord
100
AcDbLayerTableRecord
2
0
70
0
62
7
6
CONTINUOUS
0
LAYER
5
1FA
100
AcDbSymbolTableRecord
100
AcDbLayerTableRecord
2
DEFAULT_1
70
0
62
7
6
CENTER
0
LAYER
5
1FB
100
AcDbSymbolTableRecord
100
AcDbLayerTableRecord
2
DEFAULT_2
70
0
62
8
6
HIDDEN
0
LAYER
5
1FC
100
AcDbSymbolTableRecord
100
AcDbLayerTableRecord
2
DEFAULT_3
70
0
62
7
6
PHANTOM
0
ENDTAB
0
TABLE
2
STYLE
5
3
100
AcDbSymbolTable
70
1
0
STYLE
5
11
100
AcDbSymbolTableRecord
100
AcDbTextStyleTableRecord
2
STANDARD
70
0
40
0.0
41
1.0
50
0.0
71
0
42
0.0
3
txt
4

0
STYLE
5
1FD
100
AcDbSymbolTableRecord
100
AcDbTextStyleTableRecord
2
TEXTSTYLE_0
70
0
40
0.0
41
0.80
50
0.0
71
0
42
0.2
3
txt
4

0
ENDTAB
0
TABLE
2
VIEW
5
6
100
AcDbSymbolTable
70
0
0
ENDTAB
0
TABLE
2
UCS
5
7
100
AcDbSymbolTable
70
0
0
ENDTAB
0
TABLE
2
APPID
5
9
100
AcDbSymbolTable
70
1
0
APPID
5
1FE
100
AcDbSymbolTableRecord
100
AcDbRegAppTableRecord
2
ACAD
70
0
0
ENDTAB
0
TABLE
2
DIMSTYLE
5
A
100
AcDbSymbolTable
70
1
0
DIMSTYLE
105
1FF
100
AcDbSymbolTableRecord
100
AcDbDimStyleTableRecord
2
STANDARD
70
0
3

4

5

6

7

40
1.0
41
0.18
42
0.0625
43
0.38
44
0.18
45
0.0
46
0.0
47
0.0050000000
48
0.0050000000
140
3.5000000000
141
0.09
142
0.0
143
25.4
144
1.0000000000
145
0.0
146
0.6000000000
147
0.09
71
1
72
0
73
1
74
1
75
0
76
0
77
0
78
0
170
0
171
2
172
0
173
0
174
0
175
0
176
0
177
0
178
0
270
2
271
3
272
4
273
2
274
2
340
11
275
0
280
0
281
0
282
0
283
1
284
0
285
0
286
0
287
3
288
0
0
ENDTAB
0
TABLE
2
BLOCK_RECORD
5
1
100
AcDbSymbolTable
70
0
0
BLOCK_RECORD
5
1B
100
AcDbSymbolTableRecord
100
AcDbBlockTableRecord
2
*MODEL_SPACE
0
BLOCK_RECORD
5
1C
100
AcDbSymbolTableRecord
100
AcDbBlockTableRecord
2
*PAPER_SPACE
0
ENDTAB
0
ENDSEC
0
SECTION
2
BLOCKS
0
BLOCK
5
1E
100
AcDbEntity
8
0
100
AcDbBlockBegin
2
*MODEL_SPACE
70
0
10
0.0
20
0.0
30
0.0
3
*MODEL_SPACE
1

0
ENDBLK
5
1F
100
AcDbEntity
8
0
100
AcDbBlockEnd
0
BLOCK
5
20
100
AcDbEntity
8
0
100
AcDbBlockBegin
2
*PAPER_SPACE
70
0
10
0.0
20
0.0
30
0.0
3
*PAPER_SPACE
1

0
ENDBLK
5
21
100
AcDbEntity
8
0
100
AcDbBlockEnd
0
ENDSEC
0
SECTION
2
ENTITIES
0
TEXT
5
200
100
AcDbEntity
8
0
100
AcDbText
62
2
6
CONTINUOUS
10
95.4791244950
20
113.4878833017
7
TEXTSTYLE_0
40
3.0000000000
1
RUD
72
5
11
102.9076958527
21
113.4878833017
100
AcDbText
0
TEXT
5
201
100
AcDbEntity
8
0
100
AcDbText
62
2
6
CONTINUOUS
10
92.9313860762
20
108.5797401715
7
TEXTSTYLE_0
40
3.0000000000
1
RM M6
72
5
11
105.1456716740
21
108.5797401715
100
AcDbText
0
TEXT
5
202
100
AcDbEntity
8
0
100
AcDbText
62
2
6
CONTINUOUS
10
299.3709298822
20
204.2370458711
7
TEXTSTYLE_0
40
3.0000000000
1
RM M6
50
90.0000000000
72
5
11
299.3709298822
21
216.4513315854
100
AcDbText
0
TEXT
5
203
100
AcDbEntity
8
0
100
AcDbText
62
2
6
CONTINUOUS
10
294.3143560991
20
204.0367855232
7
TEXTSTYLE_0
40
3.0000000000
1
RUD
50
90.0000000000
72
5
11
294.3143560991
21
211.4653569518
100
AcDbText
0
LINE
5
204
100
AcDbEntity
8
0
100
AcDbLine
62
7
6
CONTINUOUS
10
0.0000000000
20
0.0000000000
11
0.0000000000
21
297.0000000000
0
LINE
5
205
100
AcDbEntity
8
0
100
AcDbLine
62
7
6
CONTINUOUS
10
0.0000000000
20
0.0000000000
11
420.0000000000
21
0.0000000000
0
LINE
5
206
100
AcDbEntity
8
0
100
AcDbLine
62
7
6
CONTINUOUS
10
0.0000000000
20
297.0000000000
11
420.0000000000
21
297.0000000000
0
LINE
5
207
100
AcDbEntity
8
0
100
AcDbLine
62
7
6
CONTINUOUS
10
420.0000000000
20
0.0000000000
11
420.0000000000
21
297.0000000000
0
LINE
5
208
100
AcDbEntity
8
0
100
AcDbLine
62
7
6
CONTINUOUS
10
99.0188211092
20
190.4486286517
11
98.5188211092
21
190.9486286517
0
LINE
5
209
100
AcDbEntity
8
0
100
AcDbLine
62
7
6
CONTINUOUS
10
88.0644141385
20
213.2139955164
11
94.2464081820
21
228.1386493787
0
LINE
5
20A
100
AcDbEntity
8
0
100
AcDbLine
62
7
6
CONTINUOUS
10
99.0188211092
20
190.4486286517
11
123.0188211092
21
190.4486286517
0
LINE
5
20B
100
AcDbEntity
8
0
100
AcDbLine
62
7
6
CONTINUOUS
10
98.5188211092
20
190.9486286517
11
123.5188211092
21
190.9486286517
0
LINE
5
20C
100
AcDbEntity
8
DEFAULT_2
100
AcDbLine
62
8
6
HIDDEN
10
108.0188211092
20
191.4486286517
11
114.0188211092
21
191.4486286517
0
LINE
5
20D
100
AcDbEntity
8
0
100
AcDbLine
62
7
6
CONTINUOUS
10
94.3077326229
20
196.6105576276
11
88.0644141385
21
211.6832617870
0
LINE
5
20E
100
AcDbEntity
8
0
100
AcDbLine
62
7
6
CONTINUOUS
10
94.4869435915
20
225.4135439273
11
94.4218209871
21
225.2601263400
0
LINE
5
20F
100
AcDbEntity
8
0
100
AcDbLine
62
7
6
CONTINUOUS
10
91.1982892641
20
217.6659614916
11
90.8075593599
21
216.7454564448
0
LINE
5
210
100
AcDbEntity
8
0
100
AcDbLine
62
7
6
CONTINUOUS
10
92.3379224428
20
220.3507673617
11
92.1913980135
21
220.0055777903
0
LINE
5
211
100
AcDbEntity
8
0
100
AcDbLine
62
7
6
CONTINUOUS
10
94.0310910830
20
224.3396217700
11
93.8845666536
21
223.9944317218
0
LINE
5
212
100
AcDbEntity
8
0
100
AcDbLine
62
7
6
CONTINUOUS
10
91.7029851565
20
218.8549468394
11
91.5564607271
21
218.5097572680
0
LINE
5
213
100
AcDbEntity
8
0
100
AcDbLine
62
7
6
CONTINUOUS
10
93.3961518892
20
222.8438007708
11
93.2496293673
21
222.4986116763
0
LINE
5
214
100
AcDbEntity
8
0
100
AcDbLine
62
7
6
CONTINUOUS
10
94.6503556856
20
225.1178543444
11
94.7480386385
21
225.3479807254
0
LINE
5
215
100
AcDbEntity
8
0
100
AcDbLine
62
7
6
CONTINUOUS
10
91.1500562319
20
216.8716647502
11
91.4593862185
21
217.6003978129
0
LINE
5
216
100
AcDbEntity
8
0
100
AcDbLine
62
7
6
CONTINUOUS
10
95.1720613131
20
225.5301134463
11
95.2534631380
21
225.7218859072
0
LINE
5
217
100
AcDbEntity
8
0
100
AcDbLine
62
7
6
CONTINUOUS
10
95.3355954775
20
225.0985777255
11
95.2541936525
21
224.9068052645
0
LINE
5
218
100
AcDbEntity
8
0
100
AcDbLine
62
7
6
CONTINUOUS
10
94.6173089632
20
225.5845320101
11
94.4869435915
21
225.4135439273
0
LINE
5
219
100
AcDbEntity
8
0
100
AcDbLine
62
7
6
CONTINUOUS
10
95.4659608492
20
225.2695658084
11
95.3355954775
21
225.0985777255
0
LINE
5
21A
100
AcDbEntity
8
0
100
AcDbLine
62
7
6
CONTINUOUS
10
94.7480386385
20
225.3479807254
11
94.8458436617
21
225.4422600146
0
LINE
5
21B
100
AcDbEntity
8
0
100
AcDbLine
62
7
6
CONTINUOUS
10
95.5966914782
20
225.0330135699
11
95.6944955477
21
225.1272938128
0
LINE
5
21C
100
AcDbEntity
8
0
100
AcDbLine
62
7
6
CONTINUOUS
10
100.7657865175
20
229.6640121813
11
100.6138585695
21
229.5271599169
0
LINE
5
21D
100
AcDbEntity
8
0
100
AcDbLine
62
7
6
CONTINUOUS
10
102.9308503756
20
230.9140121813
11
102.7865127215
21
230.8306801196
0
LINE
5
21E
100
AcDbEntity
8
0
100
AcDbLine
62
7
6
CONTINUOUS
10
100.0152314791
20
229.2306797381
11
99.8420261034
21
229.1306793566
0
LINE
5
21F
100
AcDbEntity
8
0
100
AcDbLine
62
7
6
CONTINUOUS
10
95.3288003822
20
229.2210415789
11
110.2534542445
21
235.4030356224
0
LINE
5
220
100
AcDbEntity
8
0
100
AcDbLine
62
7
6
CONTINUOUS
10
102.2304385790
20
230.4604942675
11
102.0359576830
21
230.3973457690
0
LINE
5
221
100
AcDbEntity
8
0
100
AcDbLine
62
7
6
CONTINUOUS
10
92.1937097201
20
217.4244911547
11
92.1938317904
21
217.2886440631
0
LINE
5
222
100
AcDbEntity
8
0
100
AcDbLine
62
7
6
CONTINUOUS
10
94.4218209871
20
225.2601263400
11
94.3893827089
21
225.0475714083
0
LINE
5
223
100
AcDbEntity
8
0
100
AcDbLine
62
7
6
CONTINUOUS
10
95.2541936525
20
224.9068052645
11
95.2217544207
21
224.6942503329
0
LINE
5
224
100
AcDbEntity
8
0
100
AcDbLine
62
7
6
CONTINUOUS
10
92.1938317904
20
217.2886440631
11
91.8845018038
21
216.5599114772
0
LINE
5
225
100
AcDbEntity
8
0
100
AcDbLine
62
7
6
CONTINUOUS
10
95.4827283510
20
224.7645332690
11
95.5966914782
21
225.0330135699
0
LINE
5
226
100
AcDbEntity
8
0
100
AcDbLine
62
7
6
CONTINUOUS
10
92.1782811770
20
216.4352097388
11
92.4550489077
21
217.0872342463
0
LINE
5
227
100
AcDbEntity
8
0
100
AcDbLine
62
7
6
CONTINUOUS
10
96.5759519228
20
224.6173422213
11
96.4619887957
21
224.3488619204
0
LINE
5
228
100
AcDbEntity
8
0
100
AcDbLine
62
7
6
CONTINUOUS
10
96.7230838427
20
224.2832987185
11
96.8044866213
21
224.4750702258
0
LINE
5
229
100
AcDbEntity
8
0
100
AcDbLine
62
7
6
CONTINUOUS
10
95.8764995226
20
222.2888710375
11
96.0067437777
21
222.5957062121
0
LINE
5
22A
100
AcDbEntity
8
0
100
AcDbLine
62
7
6
CONTINUOUS
10
94.1833318361
20
218.3000171061
11
94.3135751375
21
218.6068518038
0
LINE
5
22B
100
AcDbEntity
8
0
100
AcDbLine
62
7
6
CONTINUOUS
10
96.2346700319
20
223.1326677676
11
96.3323529848
21
223.3627941485
0
LINE
5
22C
100
AcDbEntity
8
0
100
AcDbLine
62
7
6
CONTINUOUS
10
94.5415013918
20
219.1438128825
11
94.6391843447
21
219.3739392634
0
LINE
5
22D
100
AcDbEntity
8
0
100
AcDbLine
62
7
6
CONTINUOUS
10
95.5508903154
20
221.5217840548
11
95.6485732683
21
221.7519104357
0
LINE
5
22E
100
AcDbEntity
8
0
100
AcDbLine
62
7
6
CONTINUOUS
10
93.1088212618
20
215.7686285849
11
93.2065042147
21
215.9987549658
0
LINE
5
22F
100
AcDbEntity
8
0
100
AcDbLine
62
7
6
CONTINUOUS
10
93.8577226290
20
217.5329296466
11
93.9554055819
21
217.7630560275
0
LINE
5
230
100
AcDbEntity
8
0
100
AcDbLine
62
7
6
CONTINUOUS
10
93.6135152468
20
216.9576141711
11
93.7274793276
21
217.2260944720
0
LINE
5
231
100
AcDbEntity
8
0
100
AcDbLine
62
7
6
CONTINUOUS
10
91.3286546358
20
217.8369495745
11
91.1982892641
21
217.6659614916
0
LINE
5
232
100
AcDbEntity
8
0
100
AcDbLine
62
7
6
CONTINUOUS
10
96.5927184710
20
224.1123106356
11
96.7230838427
21
224.2832987185
0
LINE
5
233
100
AcDbEntity
8
0
100
AcDbLine
62
7
6
CONTINUOUS
10
104.4913023600
20
231.0778972979
11
104.3971089014
21
230.9743778582
0
LINE
5
234
100
AcDbEntity
8
0
100
AcDbLine
62
7
6
CONTINUOUS
10
100.7491086611
20
229.3595669146
11
100.8721698412
21
229.4797527667
0
LINE
5
235
100
AcDbEntity
8
0
100
AcDbLine
62
7
6
CONTINUOUS
10
102.0192788729
20
230.0929005023
11
102.1423400530
21
230.2130863543
0
LINE
5
236
100
AcDbEntity
8
0
100
AcDbLine
62
7
6
CONTINUOUS
10
101.7824643740
20
228.2364084597
11
101.6594031939
21
228.1162226077
0
LINE
5
237
100
AcDbEntity
8
0
100
AcDbLine
62
7
6
CONTINUOUS
10
103.0526350626
20
228.9697410937
11
102.9295743593
21
228.8495552416
0
LINE
5
238
100
AcDbEntity
8
0
100
AcDbLine
62
7
6
CONTINUOUS
10
96.4619887957
20
224.3488619204
11
96.3641837725
21
224.2545826312
0
LINE
5
239
100
AcDbEntity
8
0
100
AcDbLine
62
7
6
CONTINUOUS
10
102.0359576830
20
230.3973457690
11
101.8840287813
21
230.2604935046
0
LINE
5
23A
100
AcDbEntity
8
0
100
AcDbLine
62
7
6
CONTINUOUS
10
101.7657865175
20
227.9319622393
11
101.9177154192
21
228.0688145037
0
LINE
5
23B
100
AcDbEntity
8
0
100
AcDbLine
62
7
6
CONTINUOUS
10
103.0359572062
20
228.6652958270
11
103.1878856310
21
228.8021480914
0
LINE
5
23C
100
AcDbEntity
8
0
100
AcDbLine
62
7
6
CONTINUOUS
10
103.7984818110
20
230.6778976794
11
103.6252769121
21
230.5778972979
0
LINE
5
23D
100
AcDbEntity
8
0
100
AcDbLine
62
7
6
CONTINUOUS
10
104.6645072588
20
231.1778976794
11
104.4913023600
21
231.0778972979
0
LINE
5
23E
100
AcDbEntity
8
0
100
AcDbLine
62
7
6
CONTINUOUS
10
105.0686524996
20
231.4112312670
11
104.9243148455
21
231.3278972979
0
LINE
5
23F
100
AcDbEntity
8
0
100
AcDbLine
62
7
6
CONTINUOUS
10
104.5976852068
20
230.8936359759
11
104.7708901056
21
230.9936363574
0
LINE
5
240
100
AcDbEntity
8
0
100
AcDbLine
62
7
6
CONTINUOUS
10
105.2389753946
20
230.1828892108
11
105.1235054621
21
230.1162235613
0
LINE
5
241
100
AcDbEntity
8
0
100
AcDbLine
62
7
6
CONTINUOUS
10
105.1721533426
20
229.8986294146
11
105.3453582415
21
229.9986278887
0
LINE
5
242
100
AcDbEntity
8
0
100
AcDbLine
62
7
6
CONTINUOUS
10
100.8420261034
20
227.3986284609
11
101.0152314791
21
227.4986288424
0
LINE
5
243
100
AcDbEntity
8
0
100
AcDbLine
62
7
6
CONTINUOUS
10
104.4215978274
20
229.4652950640
11
104.5948027262
21
229.5652954455
0
LINE
5
244
100
AcDbEntity
8
0
100
AcDbLine
62
7
6
CONTINUOUS
10
103.7865127215
20
229.0986282702
11
103.9308498987
21
229.1819622393
0
LINE
5
245
100
AcDbEntity
8
0
100
AcDbLine
62
7
6
CONTINUOUS
10
105.0551870951
20
229.6345531817
11
104.9108494410
21
229.5512192126
0
LINE
5
246
100
AcDbEntity
8
0
100
AcDbLine
62
7
6
CONTINUOUS
10
105.6006773600
20
229.5564033862
11
105.4274724611
21
229.4564030047
0
LINE
5
247
100
AcDbEntity
8
0
100
AcDbLine
62
7
6
CONTINUOUS
10
94.8456014284
20
225.7139532443
11
94.6173089632
21
225.5845320101
0
LINE
5
248
100
AcDbEntity
8
0
100
AcDbLine
62
7
6
CONTINUOUS
10
95.6942523607
20
225.3989870425
11
95.4659608492
21
225.2695658084
0
LINE
5
249
100
AcDbEntity
8
0
100
AcDbLine
62
7
6
CONTINUOUS
10
94.8458436617
20
225.4422600146
11
94.9926103243
21
225.5157558795
0
LINE
5
24A
100
AcDbEntity
8
0
100
AcDbLine
62
7
6
CONTINUOUS
10
95.6944955477
20
225.1272938128
11
95.8412631640
21
225.2007896777
0
LINE
5
24B
100
AcDbEntity
8
0
100
AcDbLine
62
7
6
CONTINUOUS
10
109.3273299822
20
231.9462997790
11
109.1882040390
21
231.8870975848
0
LINE
5
24C
100
AcDbEntity
8
0
100
AcDbLine
62
7
6
CONTINUOUS
10
100.9602683672
20
229.7271606799
11
100.7657865175
21
229.6640121813
0
LINE
5
24D
100
AcDbEntity
8
0
100
AcDbLine
62
7
6
CONTINUOUS
10
102.8414758333
20
228.6021473284
11
103.0359572062
21
228.6652958270
0
LINE
5
24E
100
AcDbEntity
8
0
100
AcDbLine
62
7
6
CONTINUOUS
10
101.5713046679
20
227.8688137408
11
101.7657865175
21
227.9319622393
0
LINE
5
24F
100
AcDbEntity
8
0
100
AcDbLine
62
7
6
CONTINUOUS
10
126.8060300630
20
195.9932410600
11
126.0783441930
21
195.9932410600
0
LINE
5
250
100
AcDbEntity
8
0
100
AcDbLine
62
7
6
CONTINUOUS
10
95.9592980254
20
195.9932410600
11
95.2316121554
21
195.9932410600
0
LINE
5
251
100
AcDbEntity
8
0
100
AcDbLine
62
7
6
CONTINUOUS
10
92.4548047670
20
217.3589274760
11
92.4220002779
21
217.5539119120
0
LINE
5
252
100
AcDbEntity
8
0
100
AcDbLine
62
7
6
CONTINUOUS
10
94.6504777559
20
224.9820072528
11
94.6503556856
21
225.1178543444
0
LINE
5
253
100
AcDbEntity
8
0
100
AcDbLine
62
7
6
CONTINUOUS
10
95.4828494677
20
224.6286871310
11
95.4827283510
21
224.7645332690
0
LINE
5
254
100
AcDbEntity
8
0
100
AcDbLine
62
7
6
CONTINUOUS
10
96.8044866213
20
224.4750702258
11
96.8369258532
21
224.6876261111
0
LINE
5
255
100
AcDbEntity
8
0
100
AcDbLine
62
7
6
CONTINUOUS
10
100.7050593981
20
229.2358620043
11
100.7491086611
21
229.3595669146
0
LINE
5
256
100
AcDbEntity
8
0
100
AcDbLine
62
7
6
CONTINUOUS
10
100.6138585695
20
229.5271599169
11
100.5333503374
21
229.3332702990
0
LINE
5
257
100
AcDbEntity
8
0
100
AcDbLine
62
7
6
CONTINUOUS
10
101.8840287813
20
230.2604935046
11
101.8035205492
21
230.0666038867
0
LINE
5
258
100
AcDbEntity
8
0
100
AcDbLine
62
7
6
CONTINUOUS
10
105.3331688532
20
230.2864086505
11
105.2389753946
21
230.1828892108
0
LINE
5
259
100
AcDbEntity
8
0
100
AcDbLine
62
7
6
CONTINUOUS
10
105.3453582415
20
229.9986278887
11
105.4395517000
21
230.1021473284
0
LINE
5
25A
100
AcDbEntity
8
0
100
AcDbLine
62
7
6
CONTINUOUS
10
105.6948708185
20
229.6599209185
11
105.6006773600
21
229.5564033862
0
LINE
5
25B
100
AcDbEntity
8
0
100
AcDbLine
62
7
6
CONTINUOUS
10
105.6857837328
20
229.4089939471
11
105.7799771914
21
229.5125133868
0
LINE
5
25C
100
AcDbEntity
8
0
100
AcDbLine
62
7
6
CONTINUOUS
10
91.4593862185
20
217.6003978129
11
91.5571893343
21
217.6946775790
0
LINE
5
25D
100
AcDbEntity
8
0
100
AcDbLine
62
7
6
CONTINUOUS
10
109.3737052569
20
231.6502869006
11
109.5592065939
21
231.7686912890
0
LINE
5
25E
100
AcDbEntity
8
0
100
AcDbLine
62
7
6
CONTINUOUS
10
105.5125788340
20
229.3089935656
11
105.6857837328
21
229.4089939471
0
LINE
5
25F
100
AcDbEntity
8
0
100
AcDbLine
62
7
6
CONTINUOUS
10
96.3644269594
20
223.9828894015
11
96.5927184710
21
224.1123106356
0
LINE
5
260
100
AcDbEntity
8
0
100
AcDbLine
62
7
6
CONTINUOUS
10
96.3641837725
20
224.2545826312
11
96.2174161562
21
224.1810867663
0
LINE
5
261
100
AcDbEntity
8
0
100
AcDbLine
62
7
6
CONTINUOUS
10
111.2750932762
20
230.7030460711
11
111.0895920062
21
230.6438438769
0
LINE
5
262
100
AcDbEntity
8
0
100
AcDbLine
62
7
6
CONTINUOUS
10
113.5011085161
20
230.7030460711
11
113.3156071791
21
230.6438438769
0
LINE
5
263
100
AcDbEntity
8
0
100
AcDbLine
62
7
6
CONTINUOUS
10
96.5758298525
20
224.7531893130
11
96.5759519228
21
224.6173422213
0
LINE
5
264
100
AcDbEntity
8
0
100
AcDbLine
62
7
6
CONTINUOUS
10
100.5333503374
20
229.3332702990
11
100.5105775484
21
229.1727135058
0
LINE
5
265
100
AcDbEntity
8
0
100
AcDbLine
62
7
6
CONTINUOUS
10
101.9752296099
20
229.9691955920
11
102.0192788729
21
230.0929005023
0
LINE
5
266
100
AcDbEntity
8
0
100
AcDbLine
62
7
6
CONTINUOUS
10
101.8265136370
20
228.3601124163
11
101.7824643740
21
228.2364084597
0
LINE
5
267
100
AcDbEntity
8
0
100
AcDbLine
62
7
6
CONTINUOUS
10
103.0966843256
20
229.0934460040
11
103.0526350626
21
228.9697410937
0
LINE
5
268
100
AcDbEntity
8
0
100
AcDbLine
62
7
6
CONTINUOUS
10
101.9177154192
20
228.0688145037
11
101.9982226977
21
228.2627041217
0
LINE
5
269
100
AcDbEntity
8
0
100
AcDbLine
62
7
6
CONTINUOUS
10
103.1878856310
20
228.8021480914
11
103.2683933863
21
228.9960377093
0
LINE
5
26A
100
AcDbEntity
8
0
100
AcDbLine
62
7
6
CONTINUOUS
10
104.5247682222
20
230.7532646533
11
104.5976852068
21
230.8936359759
0
LINE
5
26B
100
AcDbEntity
8
0
100
AcDbLine
62
7
6
CONTINUOUS
10
105.4395517000
20
230.1021473284
11
105.4760101923
21
230.1723320361
0
LINE
5
26C
100
AcDbEntity
8
0
100
AcDbLine
62
7
6
CONTINUOUS
10
105.7799771914
20
229.5125133868
11
105.8453034052
21
229.5993645068
0
LINE
5
26D
100
AcDbEntity
8
0
100
AcDbLine
62
7
6
CONTINUOUS
10
109.4200806507
20
232.0647041674
11
109.3273299822
21
231.9462997790
0
LINE
5
26E
100
AcDbEntity
8
0
100
AcDbLine
62
7
6
CONTINUOUS
10
111.4142192194
20
230.8214523669
11
111.2750932762
21
230.7030460711
0
LINE
5
26F
100
AcDbEntity
8
0
100
AcDbLine
62
7
6
CONTINUOUS
10
111.3214685806
20
230.3478309985
11
111.5069698581
21
230.4662353869
0
LINE
5
270
100
AcDbEntity
8
0
100
AcDbLine
62
7
6
CONTINUOUS
10
113.5474837908
20
230.3478309985
11
113.7329851278
21
230.4662353869
0
LINE
5
271
100
AcDbEntity
8
DEFAULT_2
100
AcDbLine
62
8
6
HIDDEN
10
114.0188211092
20
191.4486286517
11
115.0188211092
21
190.4486286517
0
LINE
5
272
100
AcDbEntity
8
0
100
AcDbLine
62
7
6
CONTINUOUS
10
92.1283448824
20
217.5427667971
11
92.1937097201
21
217.4244911547
0
LINE
5
273
100
AcDbEntity
8
0
100
AcDbLine
62
7
6
CONTINUOUS
10
94.3893827089
20
225.0475714083
11
94.4548696169
21
224.7934486743
0
LINE
5
274
100
AcDbEntity
8
0
100
AcDbLine
62
7
6
CONTINUOUS
10
98.5188211092
20
190.9486286517
11
98.5188211092
21
192.4932410600
0
LINE
5
275
100
AcDbEntity
8
0
100
AcDbLine
62
7
6
CONTINUOUS
10
99.8420261034
20
229.1306793566
11
99.8177569994
21
228.7727138873
0
LINE
5
276
100
AcDbEntity
8
0
100
AcDbLine
62
7
6
CONTINUOUS
10
99.9879697451
20
228.4778969165
11
100.0122388491
21
228.8358623858
0
LINE
5
277
100
AcDbEntity
8
0
100
AcDbLine
62
7
6
CONTINUOUS
10
101.8035205492
20
230.0666038867
11
101.7807477602
21
229.9060470935
0
LINE
5
278
100
AcDbEntity
8
0
100
AcDbLine
62
7
6
CONTINUOUS
10
101.9982226977
20
228.2627041217
11
102.0209954867
21
228.4232599612
0
LINE
5
279
100
AcDbEntity
8
0
100
AcDbLine
62
7
6
CONTINUOUS
10
104.3971089014
20
230.9743778582
11
104.3530591616
21
230.8506748553
0
LINE
5
27A
100
AcDbEntity
8
0
100
AcDbLine
62
7
6
CONTINUOUS
10
105.3772181162
20
230.4101116534
11
105.3331688532
21
230.2864086505
0
LINE
5
27B
100
AcDbEntity
8
0
100
AcDbLine
62
7
6
CONTINUOUS
10
109.5592065939
20
231.7686912890
11
109.6983325371
21
232.0055019732
0
LINE
5
27C
100
AcDbEntity
8
0
100
AcDbLine
62
7
6
CONTINUOUS
10
113.6402343401
20
230.8214523669
11
113.5011085161
21
230.7030460711
0
LINE
5
27D
100
AcDbEntity
8
0
100
AcDbLine
62
7
6
CONTINUOUS
10
91.5406659731
20
217.9280164118
11
91.3286546358
21
217.8369495745
0
LINE
5
27E
100
AcDbEntity
8
0
100
AcDbLine
62
7
6
CONTINUOUS
10
92.4220002779
20
217.5539119120
11
92.2749894747
21
217.7521092768
0
LINE
5
27F
100
AcDbEntity
8
0
100
AcDbLine
62
7
6
CONTINUOUS
10
94.6995633730
20
224.8253776904
11
94.6504777559
21
224.9820072528
0
LINE
5
280
100
AcDbEntity
8
0
100
AcDbLine
62
7
6
CONTINUOUS
10
95.2217544207
20
224.6942503329
11
95.3199237475
21
224.3809893008
0
LINE
5
281
100
AcDbEntity
8
0
100
AcDbLine
62
7
6
CONTINUOUS
10
95.5319341311
20
224.4720566149
11
95.4828494677
21
224.6286871310
0
LINE
5
282
100
AcDbEntity
8
0
100
AcDbLine
62
7
6
CONTINUOUS
10
96.8369258532
20
224.6876261111
11
96.7714389452
21
224.9417478915
0
LINE
5
283
100
AcDbEntity
8
0
100
AcDbLine
62
7
6
CONTINUOUS
10
100.7172492632
20
228.9480831500
11
100.7050593981
21
229.2358620043
0
LINE
5
284
100
AcDbEntity
8
0
100
AcDbLine
62
7
6
CONTINUOUS
10
101.8143247255
20
228.6478912707
11
101.8265136370
21
228.3601124163
0
LINE
5
285
100
AcDbEntity
8
0
100
AcDbLine
62
7
6
CONTINUOUS
10
103.6252769121
20
230.5778972979
11
103.5691479334
21
229.8084480639
0
LINE
5
286
100
AcDbEntity
8
0
100
AcDbLine
62
7
6
CONTINUOUS
10
103.2683933863
20
228.9960377093
11
103.2911661753
21
229.1565945025
0
LINE
5
287
100
AcDbEntity
8
0
100
AcDbLine
62
7
6
CONTINUOUS
10
103.6968077311
20
229.5873348590
11
103.7347620615
21
229.8549301501
0
LINE
5
288
100
AcDbEntity
8
0
100
AcDbLine
62
7
6
CONTINUOUS
10
104.3530591616
20
230.8506748553
11
104.3302863726
21
230.6901180621
0
LINE
5
289
100
AcDbEntity
8
0
100
AcDbLine
62
7
6
CONTINUOUS
10
105.8453034052
20
229.5993645068
11
105.8893526682
21
229.7230694171
0
LINE
5
28A
100
AcDbEntity
8
0
100
AcDbLine
62
7
6
CONTINUOUS
10
111.5069698581
20
230.4662353869
11
111.6924711355
21
230.7030460711
0
LINE
5
28B
100
AcDbEntity
8
0
100
AcDbLine
62
7
6
CONTINUOUS
10
113.7329851278
20
230.4662353869
11
113.9184862265
21
230.7030460711
0
LINE
5
28C
100
AcDbEntity
8
0
100
AcDbLine
62
7
6
CONTINUOUS
10
96.5267451891
20
224.9098198291
11
96.5758298525
21
224.7531893130
0
LINE
5
28D
100
AcDbEntity
8
0
100
AcDbLine
62
7
6
CONTINUOUS
10
101.9874194750
20
229.6814167376
11
101.9752296099
21
229.9691955920
0
LINE
5
28E
100
AcDbEntity
8
0
100
AcDbLine
62
7
6
CONTINUOUS
10
103.0844949373
20
229.3812248583
11
103.0966843256
21
229.0934460040
0
LINE
5
28F
100
AcDbEntity
8
0
100
AcDbLine
62
7
6
CONTINUOUS
10
103.7575348505
20
230.0154869433
11
103.7984818110
21
230.6778976794
0
LINE
5
290
100
AcDbEntity
8
0
100
AcDbLine
62
7
6
CONTINUOUS
10
105.4760101923
20
230.1723320361
11
105.4911922106
21
230.2793705340
0
LINE
5
291
100
AcDbEntity
8
0
100
AcDbLine
62
7
6
CONTINUOUS
10
105.7176436075
20
229.8204777117
11
105.6948708185
21
229.6599209185
0
LINE
5
292
100
AcDbEntity
8
0
100
AcDbLine
62
7
6
CONTINUOUS
10
109.4664559254
20
232.2423126574
11
109.4200806507
21
232.0647041674
0
LINE
5
293
100
AcDbEntity
8
0
100
AcDbLine
62
7
6
CONTINUOUS
10
111.5069698581
20
230.9990589495
11
111.4142192194
21
230.8214523669
0
LINE
5
294
100
AcDbEntity
8
0
100
AcDbLine
62
7
6
CONTINUOUS
10
91.9977353701
20
217.6434719439
11
92.1283448824
21
217.5427667971
0
LINE
5
295
100
AcDbEntity
8
0
100
AcDbLine
62
7
6
CONTINUOUS
10
92.2749894747
20
217.7521092768
11
92.1443818697
21
217.8528144236
0
LINE
5
296
100
AcDbEntity
8
0
100
AcDbLine
62
7
6
CONTINUOUS
10
92.1913980135
20
220.0055777903
11
94.0036386141
21
218.5573522921
0
LINE
5
297
100
AcDbEntity
8
0
100
AcDbLine
62
7
6
CONTINUOUS
10
94.3135751375
20
218.6068518038
11
92.7298692354
21
219.9128053065
0
LINE
5
298
100
AcDbEntity
8
0
100
AcDbLine
62
7
6
CONTINUOUS
10
94.4548696169
20
224.7934486743
11
94.6018804201
21
224.5952513095
0
LINE
5
299
100
AcDbEntity
8
0
100
AcDbLine
62
7
6
CONTINUOUS
10
95.5972989687
20
224.3537809725
11
95.5319341311
21
224.4720566149
0
LINE
5
29A
100
AcDbEntity
8
0
100
AcDbLine
62
7
6
CONTINUOUS
10
100.5105775484
20
229.1727135058
11
100.5379489550
21
228.9919731494
0
LINE
5
29B
100
AcDbEntity
8
0
100
AcDbLine
62
7
6
CONTINUOUS
10
101.7807477602
20
229.9060470935
11
101.8081191668
21
229.7253067370
0
LINE
5
29C
100
AcDbEntity
8
0
100
AcDbLine
62
7
6
CONTINUOUS
10
102.0209954867
20
228.4232599612
11
101.9936240801
21
228.6040031787
0
LINE
5
29D
100
AcDbEntity
8
0
100
AcDbLine
62
7
6
CONTINUOUS
10
104.5308631548
20
230.6093761798
11
104.5247682222
21
230.7532646533
0
LINE
5
29E
100
AcDbEntity
8
0
100
AcDbLine
62
7
6
CONTINUOUS
10
105.3711231836
20
230.5540020343
11
105.3772181162
21
230.4101116534
0
LINE
5
29F
100
AcDbEntity
8
0
100
AcDbLine
62
7
6
CONTINUOUS
10
105.8893526682
20
229.7230694171
11
105.8832577356
21
229.8669597979
0
LINE
5
2A0
100
AcDbEntity
8
0
100
AcDbLine
62
7
6
CONTINUOUS
10
109.6983325371
20
232.0055019732
11
109.7447078117
21
232.1831104632
0
LINE
5
2A1
100
AcDbEntity
8
0
100
AcDbLine
62
7
6
CONTINUOUS
10
111.6924711355
20
230.7030460711
11
111.7852217445
21
230.9398567553
0
LINE
5
2A2
100
AcDbEntity
8
0
100
AcDbLine
62
7
6
CONTINUOUS
10
113.7329851278
20
230.9990589495
11
113.6402343401
21
230.8214523669
0
LINE
5
2A3
100
AcDbEntity
8
0
100
AcDbLine
62
7
6
CONTINUOUS
10
90.8075593599
20
216.7454564448
11
93.1088212618
21
215.7686285849
0
LINE
5
2A4
100
AcDbEntity
8
0
100
AcDbLine
62
7
6
CONTINUOUS
10
93.2065042147
20
215.9987549658
11
92.1782811770
21
216.4352097388
0
LINE
5
2A5
100
AcDbEntity
8
0
100
AcDbLine
62
7
6
CONTINUOUS
10
91.8845018038
20
216.5599114772
11
91.1500562319
21
216.8716647502
0
LINE
5
2A6
100
AcDbEntity
8
0
100
AcDbLine
62
7
6
CONTINUOUS
10
94.8138917574
20
224.6863176699
11
94.6995633730
21
224.8253776904
0
LINE
5
2A7
100
AcDbEntity
8
0
100
AcDbLine
62
7
6
CONTINUOUS
10
96.7714389452
20
224.9417478915
11
96.6244281420
21
225.1399462100
0
LINE
5
2A8
100
AcDbEntity
8
0
100
AcDbLine
62
7
6
CONTINUOUS
10
100.5729116091
20
228.8647491809
11
100.6504262575
21
228.6638214465
0
LINE
5
2A9
100
AcDbEntity
8
0
100
AcDbLine
62
7
6
CONTINUOUS
10
100.5379489550
20
228.9919731494
11
100.5729116091
21
228.8647491809
0
LINE
5
2AA
100
AcDbEntity
8
0
100
AcDbLine
62
7
6
CONTINUOUS
10
101.9936240801
20
228.6040031787
11
101.9586623797
21
228.7312252398
0
LINE
5
2AB
100
AcDbEntity
8
0
100
AcDbLine
62
7
6
CONTINUOUS
10
101.8081191668
20
229.7253067370
11
101.8430818209
21
229.5980827685
0
LINE
5
2AC
100
AcDbEntity
8
0
100
AcDbLine
62
7
6
CONTINUOUS
10
103.2911661753
20
229.1565945025
11
103.2637947687
21
229.3373348590
0
LINE
5
2AD
100
AcDbEntity
8
DEFAULT_2
100
AcDbLine
62
8
6
HIDDEN
10
108.0188211092
20
200.3139675522
11
108.0188211092
21
191.4486286517
0
LINE
5
2AE
100
AcDbEntity
8
0
100
AcDbLine
62
7
6
CONTINUOUS
10
108.0288210997
20
233.0711471911
11
108.0288210997
21
230.2886288043
0
LINE
5
2AF
100
AcDbEntity
8
0
100
AcDbLine
62
7
6
CONTINUOUS
10
108.3070729860
20
230.2886288043
11
108.3070729860
21
231.5318825122
0
LINE
5
2B0
100
AcDbEntity
8
0
100
AcDbLine
62
7
6
CONTINUOUS
10
108.3070729860
20
231.8870975848
11
108.3070729860
21
232.7751343127
0
LINE
5
2B1
100
AcDbEntity
8
0
100
AcDbLine
62
7
6
CONTINUOUS
10
111.7852217445
20
230.9398567553
11
111.8315970787
21
231.2358696337
0
LINE
5
2B2
100
AcDbEntity
8
0
100
AcDbLine
62
7
6
CONTINUOUS
10
111.5533451923
20
231.2358696337
11
111.5069698581
21
230.9990589495
0
LINE
5
2B3
100
AcDbEntity
8
0
100
AcDbLine
62
7
6
CONTINUOUS
10
113.9184862265
20
230.7030460711
11
114.0112370142
21
230.9398567553
0
LINE
5
2B4
100
AcDbEntity
8
0
100
AcDbLine
62
7
6
CONTINUOUS
10
91.8508466372
20
217.7058226939
11
91.9977353701
21
217.6434719439
0
LINE
5
2B5
100
AcDbEntity
8
0
100
AcDbLine
62
7
6
CONTINUOUS
10
92.1443818697
20
217.8528144236
11
91.9485295900
21
217.9359490748
0
LINE
5
2B6
100
AcDbEntity
8
0
100
AcDbLine
62
7
6
CONTINUOUS
10
91.5564607271
20
218.5097572680
11
93.8577226290
21
217.5329296466
0
LINE
5
2B7
100
AcDbEntity
8
0
100
AcDbLine
62
7
6
CONTINUOUS
10
93.9554055819
20
217.7630560275
11
92.1437734255
21
218.5320479746
0
LINE
5
2B8
100
AcDbEntity
8
0
100
AcDbLine
62
7
6
CONTINUOUS
10
93.8845666536
20
223.9944317218
11
95.6968063006
21
222.5462067004
0
LINE
5
2B9
100
AcDbEntity
8
0
100
AcDbLine
62
7
6
CONTINUOUS
10
96.0067437777
20
222.5957062121
11
94.4230378756
21
223.9016592379
0
LINE
5
2BA
100
AcDbEntity
8
0
100
AcDbLine
62
7
6
CONTINUOUS
10
96.4124168047
20
225.0488788958
11
96.5267451891
21
224.9098198291
0
LINE
5
2BB
100
AcDbEntity
8
0
100
AcDbLine
62
7
6
CONTINUOUS
10
100.8160403856
20
228.7103035327
11
100.7172492632
21
228.9480831500
0
LINE
5
2BC
100
AcDbEntity
8
0
100
AcDbLine
62
7
6
CONTINUOUS
10
101.7155326494
20
228.8856708880
11
101.8143247255
21
228.6478912707
0
LINE
5
2BD
100
AcDbEntity
8
0
100
AcDbLine
62
7
6
CONTINUOUS
10
102.0862115511
20
229.4436371203
11
101.9874194750
21
229.6814167376
0
LINE
5
2BE
100
AcDbEntity
8
0
100
AcDbLine
62
7
6
CONTINUOUS
10
101.9586623797
20
228.7312252398
11
101.8811467775
21
228.9321529742
0
LINE
5
2BF
100
AcDbEntity
8
0
100
AcDbLine
62
7
6
CONTINUOUS
10
101.8430818209
20
229.5980827685
11
101.9205974230
21
229.3971550341
0
LINE
5
2C0
100
AcDbEntity
8
0
100
AcDbLine
62
7
6
CONTINUOUS
10
103.2637947687
20
229.3373348590
11
103.2288325915
21
229.4645588275
0
LINE
5
2C1
100
AcDbEntity
8
0
100
AcDbLine
62
7
6
CONTINUOUS
10
104.3302863726
20
230.6901180621
11
104.3439720759
21
230.5997459765
0
LINE
5
2C2
100
AcDbEntity
8
0
100
AcDbLine
62
7
6
CONTINUOUS
10
105.4911922106
20
230.2793705340
11
105.4775065073
21
230.3697407122
0
LINE
5
2C3
100
AcDbEntity
8
0
100
AcDbLine
62
7
6
CONTINUOUS
10
105.7039579043
20
229.9108497973
11
105.7176436075
21
229.8204777117
0
LINE
5
2C4
100
AcDbEntity
8
0
100
AcDbLine
62
7
6
CONTINUOUS
10
109.4664559254
20
232.4199192401
11
109.4664559254
21
232.2423126574
0
LINE
5
2C5
100
AcDbEntity
8
0
100
AcDbLine
62
7
6
CONTINUOUS
10
109.7447078117
20
232.1831104632
11
109.7447078117
21
232.4199192401
0
LINE
5
2C6
100
AcDbEntity
8
0
100
AcDbLine
62
7
6
CONTINUOUS
10
110.1620857009
20
233.0711471911
11
110.1620857009
21
231.2358696337
0
LINE
5
2C7
100
AcDbEntity
8
0
100
AcDbLine
62
7
6
CONTINUOUS
10
110.4403375873
20
231.2358696337
11
110.4403375873
21
233.0711471911
0
LINE
5
2C8
100
AcDbEntity
8
DEFAULT_1
100
AcDbLine
62
2
6
CENTER
10
111.0188211092
20
212.4486286517
11
111.0188211092
21
189.6161889922
0
LINE
5
2C9
100
AcDbEntity
8
DEFAULT_1
100
AcDbLine
62
2
6
CENTER
10
111.0188211092
20
212.4486286517
11
111.0188211092
21
227.9486286517
0
LINE
5
2CA
100
AcDbEntity
8
0
100
AcDbLine
62
7
6
CONTINUOUS
10
114.0112370142
20
230.9398567553
11
114.0576122889
21
231.2358696337
0
LINE
5
2CB
100
AcDbEntity
8
0
100
AcDbLine
62
7
6
CONTINUOUS
10
113.7793604025
20
231.2358696337
11
113.7329851278
21
230.9990589495
0
LINE
5
2CC
100
AcDbEntity
8
DEFAULT_1
100
AcDbLine
62
2
6
CENTER
10
111.0188211092
20
212.4486286517
11
95.5188211092
21
212.4486286517
0
LINE
5
2CD
100
AcDbEntity
8
DEFAULT_1
100
AcDbLine
62
2
6
CENTER
10
111.0188211092
20
212.4486286517
11
126.5188211092
21
212.4486286517
0
LINE
5
2CE
100
AcDbEntity
8
0
100
AcDbLine
62
7
6
CONTINUOUS
10
92.7298692354
20
219.9128053065
11
94.5415013918
21
219.1438128825
0
LINE
5
2CF
100
AcDbEntity
8
0
100
AcDbLine
62
7
6
CONTINUOUS
10
94.6391843447
20
219.3739392634
11
92.3379224428
21
220.3507673617
0
LINE
5
2D0
100
AcDbEntity
8
0
100
AcDbLine
62
7
6
CONTINUOUS
10
94.9444993624
20
224.5856125231
11
94.8138917574
21
224.6863176699
0
LINE
5
2D1
100
AcDbEntity
8
0
100
AcDbLine
62
7
6
CONTINUOUS
10
95.7279075274
20
224.2530758258
11
95.5972989687
21
224.3537809725
0
LINE
5
2D2
100
AcDbEntity
8
0
100
AcDbLine
62
7
6
CONTINUOUS
10
94.6018804201
20
224.5952513095
11
94.8141339907
21
224.4146244403
0
LINE
5
2D3
100
AcDbEntity
8
0
100
AcDbLine
62
7
6
CONTINUOUS
10
96.6244281420
20
225.1399462100
11
96.4121736178
21
225.3205721255
0
LINE
5
2D4
100
AcDbEntity
8
0
100
AcDbLine
62
7
6
CONTINUOUS
10
99.8177569994
20
228.7727138873
11
99.9879697451
21
228.4778969165
0
LINE
5
2D5
100
AcDbEntity
8
0
100
AcDbLine
62
7
6
CONTINUOUS
10
100.0122388491
20
228.8358623858
11
100.8420261034
21
227.3986284609
0
LINE
5
2D6
100
AcDbEntity
8
0
100
AcDbLine
62
7
6
CONTINUOUS
10
101.0152314791
20
227.4986288424
11
100.0152314791
21
229.2306797381
0
LINE
5
2D7
100
AcDbEntity
8
0
100
AcDbLine
62
7
6
CONTINUOUS
10
100.6504262575
20
228.6638214465
11
100.8419164309
21
228.3321525927
0
LINE
5
2D8
100
AcDbEntity
8
0
100
AcDbLine
62
7
6
CONTINUOUS
10
100.9649766573
20
228.4523384448
11
100.8160403856
21
228.7103035327
0
LINE
5
2D9
100
AcDbEntity
8
0
100
AcDbLine
62
7
6
CONTINUOUS
10
101.5665963778
20
229.1436359759
11
101.7155326494
21
228.8856708880
0
LINE
5
2DA
100
AcDbEntity
8
0
100
AcDbLine
62
7
6
CONTINUOUS
10
101.8811467775
20
228.9321529742
11
101.6896575579
21
229.2638218280
0
LINE
5
2DB
100
AcDbEntity
8
0
100
AcDbLine
62
7
6
CONTINUOUS
10
102.9857028612
20
229.6190044757
11
103.0844949373
21
229.3812248583
0
LINE
5
2DC
100
AcDbEntity
8
0
100
AcDbLine
62
7
6
CONTINUOUS
10
103.2288325915
20
229.4645588275
11
103.1513169893
21
229.6654865618
0
LINE
5
2DD
100
AcDbEntity
8
0
100
AcDbLine
62
7
6
CONTINUOUS
10
104.3439720759
20
230.5997459765
11
104.4002112040
21
230.4356720324
0
LINE
5
2DE
100
AcDbEntity
8
0
100
AcDbLine
62
7
6
CONTINUOUS
10
105.8832577356
20
229.8669597979
11
105.7920569071
21
230.1582577105
0
LINE
5
2DF
100
AcDbEntity
8
0
100
AcDbLine
62
7
6
CONTINUOUS
10
104.5658253321
20
230.4821522113
11
104.5308631548
21
230.6093761798
0
LINE
5
2E0
100
AcDbEntity
8
0
100
AcDbLine
62
7
6
CONTINUOUS
10
111.5533451923
20
233.0711471911
11
111.5533451923
21
231.2358696337
0
LINE
5
2E1
100
AcDbEntity
8
0
100
AcDbLine
62
7
6
CONTINUOUS
10
111.8315970787
20
231.2358696337
11
111.8315970787
21
233.0711471911
0
LINE
5
2E2
100
AcDbEntity
8
0
100
AcDbLine
62
7
6
CONTINUOUS
10
112.2025996336
20
233.0711471911
11
112.2025996336
21
230.2886288043
0
LINE
5
2E3
100
AcDbEntity
8
0
100
AcDbLine
62
7
6
CONTINUOUS
10
112.4808515200
20
230.6438438769
11
112.4808515200
21
232.7159321185
0
LINE
5
2E4
100
AcDbEntity
8
0
100
AcDbLine
62
7
6
CONTINUOUS
10
93.7274793276
20
217.2260944720
11
92.4548047670
21
217.3589274760
0
LINE
5
2E5
100
AcDbEntity
8
0
100
AcDbLine
62
7
6
CONTINUOUS
10
92.4550489077
20
217.0872342463
11
93.6135152468
21
216.9576141711
0
LINE
5
2E6
100
AcDbEntity
8
0
100
AcDbLine
62
7
6
CONTINUOUS
10
91.6876767763
20
217.7298190470
11
91.8508466372
21
217.7058226939
0
LINE
5
2E7
100
AcDbEntity
8
0
100
AcDbLine
62
7
6
CONTINUOUS
10
91.9485295900
20
217.9359490748
11
91.7853597292
21
217.9599449511
0
LINE
5
2E8
100
AcDbEntity
8
0
100
AcDbLine
62
7
6
CONTINUOUS
10
93.2496293673
20
222.4986116763
11
95.5508903154
21
221.5217840548
0
LINE
5
2E9
100
AcDbEntity
8
0
100
AcDbLine
62
7
6
CONTINUOUS
10
95.6485732683
20
221.7519104357
11
93.8369420656
21
222.5209019061
0
LINE
5
2EA
100
AcDbEntity
8
0
100
AcDbLine
62
7
6
CONTINUOUS
10
94.8141339907
20
224.4146244403
11
95.1405948290
21
224.2307846423
0
LINE
5
2EB
100
AcDbEntity
8
0
100
AcDbLine
62
7
6
CONTINUOUS
10
95.2219976076
20
224.4225571032
11
94.9444993624
21
224.5856125231
0
LINE
5
2EC
100
AcDbEntity
8
0
100
AcDbLine
62
7
6
CONTINUOUS
10
96.2818082461
20
225.1495840426
11
96.4124168047
21
225.0488788958
0
LINE
5
2ED
100
AcDbEntity
8
0
100
AcDbLine
62
7
6
CONTINUOUS
10
100.8419164309
20
228.3321525927
11
100.9771665224
21
228.1645586367
0
LINE
5
2EE
100
AcDbEntity
8
0
100
AcDbLine
62
7
6
CONTINUOUS
10
101.1215041765
20
228.2478916522
11
100.9649766573
21
228.4523384448
0
LINE
5
2EF
100
AcDbEntity
8
0
100
AcDbLine
62
7
6
CONTINUOUS
10
101.4100688585
20
229.3480827685
11
101.5665963778
21
229.1436359759
0
LINE
5
2F0
100
AcDbEntity
8
0
100
AcDbLine
62
7
6
CONTINUOUS
10
101.9205974230
20
229.3971550341
11
102.1120866427
21
229.0654861804
0
LINE
5
2F1
100
AcDbEntity
8
0
100
AcDbLine
62
7
6
CONTINUOUS
10
102.2351478228
20
229.1856720324
11
102.0862115511
21
229.4436371203
0
LINE
5
2F2
100
AcDbEntity
8
0
100
AcDbLine
62
7
6
CONTINUOUS
10
102.8367665896
20
229.8769695635
11
102.9857028612
21
229.6190044757
0
LINE
5
2F3
100
AcDbEntity
8
0
100
AcDbLine
62
7
6
CONTINUOUS
10
103.1513169893
20
229.6654865618
11
102.9598277697
21
229.9971554156
0
LINE
5
2F4
100
AcDbEntity
8
0
100
AcDbLine
62
7
6
CONTINUOUS
10
102.7865127215
20
230.8306801196
11
103.7865127215
21
229.0986282702
0
LINE
5
2F5
100
AcDbEntity
8
0
100
AcDbLine
62
7
6
CONTINUOUS
10
103.5691479334
20
229.8084480639
11
102.9308503756
21
230.9140121813
0
LINE
5
2F6
100
AcDbEntity
8
0
100
AcDbLine
62
7
6
CONTINUOUS
10
103.9308498987
20
229.1819622393
11
103.6968077311
21
229.5873348590
0
LINE
5
2F7
100
AcDbEntity
8
0
100
AcDbLine
62
7
6
CONTINUOUS
10
105.6477192530
20
230.0749237414
11
105.7039579043
21
229.9108497973
0
LINE
5
2F8
100
AcDbEntity
8
0
100
AcDbLine
62
7
6
CONTINUOUS
10
110.1620857009
20
231.2358696337
11
110.2084609756
21
230.9398567553
0
LINE
5
2F9
100
AcDbEntity
8
0
100
AcDbLine
62
7
6
CONTINUOUS
10
113.7793604025
20
232.1239063616
11
113.7793604025
21
231.2358696337
0
LINE
5
2FA
100
AcDbEntity
8
DEFAULT_2
100
AcDbLine
62
8
6
HIDDEN
10
114.0188211092
20
200.3139675522
11
114.0188211092
21
191.4486286517
0
LINE
5
2FB
100
AcDbEntity
8
0
100
AcDbLine
62
7
6
CONTINUOUS
10
114.0576122889
20
231.2358696337
11
114.0576122889
21
232.1239063616
0
LINE
5
2FC
100
AcDbEntity
8
0
100
AcDbLine
62
7
6
CONTINUOUS
10
92.1437734255
20
218.5320479746
11
94.1833318361
21
218.3000171061
0
LINE
5
2FD
100
AcDbEntity
8
0
100
AcDbLine
62
7
6
CONTINUOUS
10
94.0036386141
20
218.5573522921
11
91.7029851565
21
218.8549468394
0
LINE
5
2FE
100
AcDbEntity
8
0
100
AcDbLine
62
7
6
CONTINUOUS
10
94.4230378756
20
223.9016592379
11
96.2346700319
21
223.1326677676
0
LINE
5
2FF
100
AcDbEntity
8
0
100
AcDbLine
62
7
6
CONTINUOUS
10
96.3323529848
20
223.3627941485
11
94.0310910830
21
224.3396217700
0
LINE
5
300
100
AcDbEntity
8
0
100
AcDbLine
62
7
6
CONTINUOUS
10
95.1405948290
20
224.2307846423
11
95.4833358416
21
224.0852997180
0
LINE
5
301
100
AcDbEntity
8
0
100
AcDbLine
62
7
6
CONTINUOUS
10
95.3199237475
20
224.3809893008
11
95.2219976076
21
224.4225571032
0
LINE
5
302
100
AcDbEntity
8
0
100
AcDbLine
62
7
6
CONTINUOUS
10
95.8747972139
20
224.1907245989
11
95.7279075274
21
224.2530758258
0
LINE
5
303
100
AcDbEntity
8
0
100
AcDbLine
62
7
6
CONTINUOUS
10
100.9771665224
20
228.1645586367
11
101.0698636660
21
228.0706684466
0
LINE
5
304
100
AcDbEntity
8
0
100
AcDbLine
62
7
6
CONTINUOUS
10
101.6896575579
20
229.2638218280
11
101.5544065127
21
229.4314167376
0
LINE
5
305
100
AcDbEntity
8
0
100
AcDbLine
62
7
6
CONTINUOUS
10
102.1120866427
20
229.0654861804
11
102.2473367342
21
228.8978912707
0
LINE
5
306
100
AcDbEntity
8
0
100
AcDbLine
62
7
6
CONTINUOUS
10
102.9598277697
20
229.9971554156
11
102.8245776781
21
230.1647503253
0
LINE
5
307
100
AcDbEntity
8
0
100
AcDbLine
62
7
6
CONTINUOUS
10
102.3916743883
20
228.9812252398
11
102.2351478228
21
229.1856720324
0
LINE
5
308
100
AcDbEntity
8
0
100
AcDbLine
62
7
6
CONTINUOUS
10
102.6802400240
20
230.0814163561
11
102.8367665896
21
229.8769695635
0
LINE
5
309
100
AcDbEntity
8
0
100
AcDbLine
62
7
6
CONTINUOUS
10
104.4002112040
20
230.4356720324
11
104.5704239496
21
230.1408550616
0
LINE
5
30A
100
AcDbEntity
8
0
100
AcDbLine
62
7
6
CONTINUOUS
10
104.6934846529
20
230.2610390063
11
104.5658253321
21
230.4821522113
0
LINE
5
30B
100
AcDbEntity
8
0
100
AcDbLine
62
7
6
CONTINUOUS
10
104.9243148455
20
231.3278972979
11
105.0519746431
21
231.1067840930
0
LINE
5
30C
100
AcDbEntity
8
0
100
AcDbLine
62
7
6
CONTINUOUS
10
105.4775065073
20
230.3697407122
11
105.6477192530
21
230.0749237414
0
LINE
5
30D
100
AcDbEntity
8
0
100
AcDbLine
62
7
6
CONTINUOUS
10
105.1583574900
20
230.9225227709
11
105.3711231836
21
230.5540020343
0
LINE
5
30E
100
AcDbEntity
8
0
100
AcDbLine
62
7
6
CONTINUOUS
10
105.7920569071
20
230.1582577105
11
105.0686524996
21
231.4112312670
0
LINE
5
30F
100
AcDbEntity
8
0
100
AcDbLine
62
7
6
CONTINUOUS
10
109.7910830864
20
230.2886288043
11
109.3737052569
21
231.6502869006
0
LINE
5
310
100
AcDbEntity
8
0
100
AcDbLine
62
7
6
CONTINUOUS
10
109.0954533705
20
231.5318825122
11
109.4664559254
21
230.2886288043
0
LINE
5
311
100
AcDbEntity
8
0
100
AcDbLine
62
7
6
CONTINUOUS
10
109.4200806507
20
232.5975277301
11
109.4664559254
21
232.4199192401
0
LINE
5
312
100
AcDbEntity
8
0
100
AcDbLine
62
7
6
CONTINUOUS
10
109.7447078117
20
232.4199192401
11
109.6983325371
21
232.5975277301
0
LINE
5
313
100
AcDbEntity
8
0
100
AcDbLine
62
7
6
CONTINUOUS
10
110.4867129215
20
230.9990589495
11
110.4403375873
21
231.2358696337
0
LINE
5
314
100
AcDbEntity
8
0
100
AcDbLine
62
7
6
CONTINUOUS
10
95.4833358416
20
224.0852997180
11
95.8423579821
21
223.9781696673
0
LINE
5
315
100
AcDbEntity
8
0
100
AcDbLine
62
7
6
CONTINUOUS
10
96.1349195131
20
225.2119343157
11
96.2818082461
21
225.1495840426
0
LINE
5
316
100
AcDbEntity
8
0
100
AcDbLine
62
7
6
CONTINUOUS
10
96.4121736178
20
225.3205721255
11
96.1673587450
21
225.4244902011
0
LINE
5
317
100
AcDbEntity
8
0
100
AcDbLine
62
7
6
CONTINUOUS
10
101.0698636660
20
228.0706684466
11
101.2127050051
21
227.9565937396
0
LINE
5
318
100
AcDbEntity
8
0
100
AcDbLine
62
7
6
CONTINUOUS
10
101.5544065127
20
229.4314167376
11
101.4617093691
21
229.5253059741
0
LINE
5
319
100
AcDbEntity
8
0
100
AcDbLine
62
7
6
CONTINUOUS
10
102.2473367342
20
228.8978912707
11
102.3400348314
21
228.8040020343
0
LINE
5
31A
100
AcDbEntity
8
0
100
AcDbLine
62
7
6
CONTINUOUS
10
102.8245776781
20
230.1647503253
11
102.7318795809
21
230.2586395617
0
LINE
5
31B
100
AcDbEntity
8
0
100
AcDbLine
62
7
6
CONTINUOUS
10
104.5704239496
20
230.1408550616
11
104.6843975672
21
230.0101120349
0
LINE
5
31C
100
AcDbEntity
8
0
100
AcDbLine
62
7
6
CONTINUOUS
10
110.2084609756
20
230.9398567553
11
110.3012116441
21
230.7030460711
0
LINE
5
31D
100
AcDbEntity
8
0
100
AcDbLine
62
7
6
CONTINUOUS
10
113.7329851278
20
232.3607170458
11
113.7793604025
21
232.1239063616
0
LINE
5
31E
100
AcDbEntity
8
0
100
AcDbLine
62
7
6
CONTINUOUS
10
114.0576122889
20
232.1239063616
11
114.0112370142
21
232.4199192401
0
LINE
5
31F
100
AcDbEntity
8
0
100
AcDbLine
62
7
6
CONTINUOUS
10
91.7853597292
20
217.9599449511
11
91.5406659731
21
217.9280164118
0
LINE
5
320
100
AcDbEntity
8
0
100
AcDbLine
62
7
6
CONTINUOUS
10
93.8369420656
20
222.5209019061
11
95.8764995226
21
222.2888710375
0
LINE
5
321
100
AcDbEntity
8
0
100
AcDbLine
62
7
6
CONTINUOUS
10
95.6968063006
20
222.5462067004
11
93.3961518892
21
222.8438007708
0
LINE
5
322
100
AcDbEntity
8
0
100
AcDbLine
62
7
6
CONTINUOUS
10
96.0379670748
20
224.1667282458
11
95.8747972139
21
224.1907245989
0
LINE
5
323
100
AcDbEntity
8
0
100
AcDbLine
62
7
6
CONTINUOUS
10
101.3646339068
20
228.0934460040
11
101.1215041765
21
228.2478916522
0
LINE
5
324
100
AcDbEntity
8
0
100
AcDbLine
62
7
6
CONTINUOUS
10
101.1669391283
20
229.5025284167
11
101.4100688585
21
229.3480827685
0
LINE
5
325
100
AcDbEntity
8
0
100
AcDbLine
62
7
6
CONTINUOUS
10
102.6348041186
20
228.8267795916
11
102.3916743883
21
228.9812252398
0
LINE
5
326
100
AcDbEntity
8
0
100
AcDbLine
62
7
6
CONTINUOUS
10
102.3400348314
20
228.8040020343
11
102.4828761706
21
228.6899273272
0
LINE
5
327
100
AcDbEntity
8
0
100
AcDbLine
62
7
6
CONTINUOUS
10
101.4617093691
20
229.5253059741
11
101.3188680300
21
229.6393806811
0
LINE
5
328
100
AcDbEntity
8
0
100
AcDbLine
62
7
6
CONTINUOUS
10
102.7318795809
20
230.2586395617
11
102.5890382418
21
230.3727142687
0
LINE
5
329
100
AcDbEntity
8
0
100
AcDbLine
62
7
6
CONTINUOUS
10
104.9108494410
20
229.5512192126
11
105.0962442049
21
229.3634407397
0
LINE
5
32A
100
AcDbEntity
8
0
100
AcDbLine
62
7
6
CONTINUOUS
10
105.1478842386
20
229.5406639453
11
105.0551870951
21
229.6345531817
0
LINE
5
32B
100
AcDbEntity
8
0
100
AcDbLine
62
7
6
CONTINUOUS
10
104.7861822733
20
230.1671497698
11
104.6934846529
21
230.2610390063
0
LINE
5
32C
100
AcDbEntity
8
0
100
AcDbLine
62
7
6
CONTINUOUS
10
109.6983325371
20
232.5975277301
11
109.5592065939
21
232.8343384143
0
LINE
5
32D
100
AcDbEntity
8
0
100
AcDbLine
62
7
6
CONTINUOUS
10
110.5794635305
20
230.8214523669
11
110.4867129215
21
230.9990589495
0
LINE
5
32E
100
AcDbEntity
8
0
100
AcDbLine
62
7
6
CONTINUOUS
10
91.5571893343
20
217.6946775790
11
91.6876767763
21
217.7298190470
0
LINE
5
32F
100
AcDbEntity
8
0
100
AcDbLine
62
7
6
CONTINUOUS
10
95.8423579821
20
223.9781696673
11
96.1197341570
21
223.9509603854
0
LINE
5
330
100
AcDbEntity
8
0
100
AcDbLine
62
7
6
CONTINUOUS
10
96.1673587450
20
225.4244902011
11
95.8899825701
21
225.4516994830
0
LINE
5
331
100
AcDbEntity
8
0
100
AcDbLine
62
7
6
CONTINUOUS
10
95.9717496523
20
225.2359306689
11
96.1349195131
21
225.2119343157
0
LINE
5
332
100
AcDbEntity
8
0
100
AcDbLine
62
7
6
CONTINUOUS
10
95.2534631380
20
225.7218859072
11
95.0902942309
21
225.7458822604
0
LINE
5
333
100
AcDbEntity
8
0
100
AcDbLine
62
7
6
CONTINUOUS
10
101.2127050051
20
227.9565937396
11
101.3631375918
21
227.8960373278
0
LINE
5
334
100
AcDbEntity
8
0
100
AcDbLine
62
7
6
CONTINUOUS
10
102.4371102938
20
230.2358620043
11
102.6802400240
21
230.0814163561
0
LINE
5
335
100
AcDbEntity
8
0
100
AcDbLine
62
7
6
CONTINUOUS
10
105.2694491037
20
229.4634411212
11
105.1478842386
21
229.5406639453
0
LINE
5
336
100
AcDbEntity
8
0
100
AcDbLine
62
7
6
CONTINUOUS
10
104.6843975672
20
230.0101120349
11
104.7558187136
21
229.9530746813
0
LINE
5
337
100
AcDbEntity
8
0
100
AcDbLine
62
7
6
CONTINUOUS
10
104.8576029429
20
230.1101124163
11
104.7861822733
21
230.1671497698
0
LINE
5
338
100
AcDbEntity
8
0
100
AcDbLine
62
7
6
CONTINUOUS
10
105.0519746431
20
231.1067840930
11
104.9805534968
21
231.1638214465
0
LINE
5
339
100
AcDbEntity
8
0
100
AcDbLine
62
7
6
CONTINUOUS
10
110.3012116441
20
230.7030460711
11
110.4867129215
21
230.4662353869
0
LINE
5
33A
100
AcDbEntity
8
0
100
AcDbLine
62
7
6
CONTINUOUS
10
109.3273299822
20
232.7159321185
11
109.4200806507
21
232.5975277301
0
LINE
5
33B
100
AcDbEntity
8
0
100
AcDbLine
62
7
6
CONTINUOUS
10
114.0112370142
20
232.4199192401
11
113.9184862265
21
232.6567299243
0
LINE
5
33C
100
AcDbEntity
8
0
100
AcDbLine
62
7
6
CONTINUOUS
10
123.5188211092
20
190.9486286517
11
123.5188211092
21
192.4932410600
0
LINE
5
33D
100
AcDbEntity
8
DEFAULT_2
100
AcDbLine
62
8
6
HIDDEN
10
108.0188211092
20
191.4486286517
11
107.0188211092
21
190.4486286517
0
LINE
5
33E
100
AcDbEntity
8
0
100
AcDbLine
62
7
6
CONTINUOUS
10
96.1197341570
20
223.9509603854
11
96.3644269594
21
223.9828894015
0
LINE
5
33F
100
AcDbEntity
8
0
100
AcDbLine
62
7
6
CONTINUOUS
10
96.2174161562
20
224.1810867663
11
96.0379670748
21
224.1667282458
0
LINE
5
340
100
AcDbEntity
8
0
100
AcDbLine
62
7
6
CONTINUOUS
10
101.4937890658
20
228.0697414752
11
101.3646339068
21
228.0934460040
0
LINE
5
341
100
AcDbEntity
8
0
100
AcDbLine
62
7
6
CONTINUOUS
10
102.4828761706
20
228.6899273272
11
102.6333078035
21
228.6293709155
0
LINE
5
342
100
AcDbEntity
8
0
100
AcDbLine
62
7
6
CONTINUOUS
10
101.3188680300
20
229.6393806811
11
101.1684354433
21
229.6999370928
0
LINE
5
343
100
AcDbEntity
8
0
100
AcDbLine
62
7
6
CONTINUOUS
10
102.5890382418
20
230.3727142687
11
102.4386066088
21
230.4332706805
0
LINE
5
344
100
AcDbEntity
8
0
100
AcDbLine
62
7
6
CONTINUOUS
10
105.0962442049
20
229.3634407397
11
105.2466763147
21
229.3028843280
0
LINE
5
345
100
AcDbEntity
8
0
100
AcDbLine
62
7
6
CONTINUOUS
10
104.5948027262
20
229.5652954455
11
103.7575348505
21
230.0154869433
0
LINE
5
346
100
AcDbEntity
8
0
100
AcDbLine
62
7
6
CONTINUOUS
10
103.7347620615
20
229.8549301501
11
104.4215978274
21
229.4652950640
0
LINE
5
347
100
AcDbEntity
8
0
100
AcDbLine
62
7
6
CONTINUOUS
10
105.0367926249
20
230.9997475024
11
105.1583574900
21
230.9225227709
0
LINE
5
348
100
AcDbEntity
8
0
100
AcDbLine
62
7
6
CONTINUOUS
10
113.6402343401
20
232.5383255358
11
113.7329851278
21
232.3607170458
0
LINE
5
349
100
AcDbEntity
8
0
100
AcDbLine
62
7
6
CONTINUOUS
10
95.0902942309
20
225.7458822604
11
94.8456014284
21
225.7139532443
0
LINE
5
34A
100
AcDbEntity
8
0
100
AcDbLine
62
7
6
CONTINUOUS
10
94.9926103243
20
225.5157558795
11
95.1720613131
21
225.5301134463
0
LINE
5
34B
100
AcDbEntity
8
0
100
AcDbLine
62
7
6
CONTINUOUS
10
101.3631375918
20
227.8960373278
11
101.5713046679
21
227.8688137408
0
LINE
5
34C
100
AcDbEntity
8
0
100
AcDbLine
62
7
6
CONTINUOUS
10
102.6333078035
20
228.6293709155
11
102.8414758333
21
228.6021473284
0
LINE
5
34D
100
AcDbEntity
8
0
100
AcDbLine
62
7
6
CONTINUOUS
10
101.1684354433
20
229.6999370928
11
100.9602683672
21
229.7271606799
0
LINE
5
34E
100
AcDbEntity
8
0
100
AcDbLine
62
7
6
CONTINUOUS
10
102.7639602312
20
228.8030750628
11
102.6348041186
21
228.8267795916
0
LINE
5
34F
100
AcDbEntity
8
0
100
AcDbLine
62
7
6
CONTINUOUS
10
101.0377839693
20
229.5262329455
11
101.1669391283
21
229.5025284167
0
LINE
5
350
100
AcDbEntity
8
0
100
AcDbLine
62
7
6
CONTINUOUS
10
105.2466763147
20
229.3028843280
11
105.3758319506
21
229.2791797991
0
LINE
5
351
100
AcDbEntity
8
0
100
AcDbLine
62
7
6
CONTINUOUS
10
104.7558187136
20
229.9530746813
11
104.9062508234
21
229.8925182696
0
LINE
5
352
100
AcDbEntity
8
0
100
AcDbLine
62
7
6
CONTINUOUS
10
104.9805534968
20
231.1638214465
11
104.8802655825
21
231.2041923876
0
LINE
5
353
100
AcDbEntity
8
0
100
AcDbLine
62
7
6
CONTINUOUS
10
110.4867129215
20
230.4662353869
11
110.6722141692
21
230.3478309985
0
LINE
5
354
100
AcDbEntity
8
0
100
AcDbLine
62
7
6
CONTINUOUS
10
110.7185894736
20
230.7030460711
11
110.5794635305
21
230.8214523669
0
LINE
5
355
100
AcDbEntity
8
0
100
AcDbLine
62
7
6
CONTINUOUS
10
109.5592065939
20
232.8343384143
11
109.3737052569
21
233.0119449969
0
LINE
5
356
100
AcDbEntity
8
0
100
AcDbLine
62
7
6
CONTINUOUS
10
113.9184862265
20
232.6567299243
11
113.7329851278
21
232.8935406085
0
LINE
5
357
100
AcDbEntity
8
0
100
AcDbLine
62
7
6
CONTINUOUS
10
101.6594031939
20
228.1162226077
11
101.4937890658
21
228.0697414752
0
LINE
5
358
100
AcDbEntity
8
0
100
AcDbLine
62
7
6
CONTINUOUS
10
102.9295743593
20
228.8495552416
11
102.7639602312
21
228.8030750628
0
LINE
5
359
100
AcDbEntity
8
0
100
AcDbLine
62
7
6
CONTINUOUS
10
95.8412631640
20
225.2007896777
11
95.9717496523
21
225.2359306689
0
LINE
5
35A
100
AcDbEntity
8
0
100
AcDbLine
62
7
6
CONTINUOUS
10
95.8899825701
20
225.4516994830
11
95.6942523607
21
225.3989870425
0
LINE
5
35B
100
AcDbEntity
8
0
100
AcDbLine
62
7
6
CONTINUOUS
10
113.3156071791
20
230.2886288043
11
113.5474837908
21
230.3478309985
0
LINE
5
35C
100
AcDbEntity
8
0
100
AcDbLine
62
7
6
CONTINUOUS
10
111.0895920062
20
230.2886288043
11
111.3214685806
21
230.3478309985
0
LINE
5
35D
100
AcDbEntity
8
0
100
AcDbLine
62
7
6
CONTINUOUS
10
105.3758319506
20
229.2791797991
11
105.5125788340
21
229.3089935656
0
LINE
5
35E
100
AcDbEntity
8
0
100
AcDbLine
62
7
6
CONTINUOUS
10
108.0288210997
20
230.2886288043
11
108.3070729860
21
230.2886288043
0
LINE
5
35F
100
AcDbEntity
8
0
100
AcDbLine
62
7
6
CONTINUOUS
10
109.4664559254
20
230.2886288043
11
109.7910830864
21
230.2886288043
0
LINE
5
360
100
AcDbEntity
8
0
100
AcDbLine
62
7
6
CONTINUOUS
10
110.9040907436
20
230.2886288043
11
111.0895920062
21
230.2886288043
0
LINE
5
361
100
AcDbEntity
8
0
100
AcDbLine
62
7
6
CONTINUOUS
10
112.2025996336
20
230.2886288043
11
113.3156071791
21
230.2886288043
0
LINE
5
362
100
AcDbEntity
8
0
100
AcDbLine
62
7
6
CONTINUOUS
10
105.4274724611
20
229.4564030047
11
105.2694491037
21
229.4634411212
0
LINE
5
363
100
AcDbEntity
8
0
100
AcDbLine
62
7
6
CONTINUOUS
10
102.4386066088
20
230.4332706805
11
102.2304385790
21
230.4604942675
0
LINE
5
364
100
AcDbEntity
8
0
100
AcDbLine
62
7
6
CONTINUOUS
10
102.3079541811
20
230.2595665332
11
102.4371102938
21
230.2358620043
0
LINE
5
365
100
AcDbEntity
8
0
100
AcDbLine
62
7
6
CONTINUOUS
10
104.9062508234
20
229.8925182696
11
105.0354064592
21
229.8688137408
0
LINE
5
366
100
AcDbEntity
8
0
100
AcDbLine
62
7
6
CONTINUOUS
10
104.9867585787
20
230.0864078875
11
104.8576029429
21
230.1101124163
0
LINE
5
367
100
AcDbEntity
8
0
100
AcDbLine
62
7
6
CONTINUOUS
10
104.9076369890
20
231.0234520312
11
105.0367926249
21
230.9997475024
0
LINE
5
368
100
AcDbEntity
8
0
100
AcDbLine
62
7
6
CONTINUOUS
10
110.6722141692
20
230.3478309985
11
110.9040907436
21
230.2886288043
0
LINE
5
369
100
AcDbEntity
8
0
100
AcDbLine
62
7
6
CONTINUOUS
10
110.9040907436
20
230.6438438769
11
110.7185894736
21
230.7030460711
0
LINE
5
36A
100
AcDbEntity
8
0
100
AcDbLine
62
7
6
CONTINUOUS
10
109.1882040390
20
232.7751343127
11
109.3273299822
21
232.7159321185
0
LINE
5
36B
100
AcDbEntity
8
0
100
AcDbLine
62
7
6
CONTINUOUS
10
113.5011085161
20
232.6567299243
11
113.6402343401
21
232.5383255358
0
LINE
5
36C
100
AcDbEntity
8
0
100
AcDbLine
62
7
6
CONTINUOUS
10
100.8721698412
20
229.4797527667
11
101.0377839693
21
229.5262329455
0
LINE
5
36D
100
AcDbEntity
8
0
100
AcDbLine
62
7
6
CONTINUOUS
10
102.1423400530
20
230.2130863543
11
102.3079541811
21
230.2595665332
0
LINE
5
36E
100
AcDbEntity
8
0
100
AcDbLine
62
7
6
CONTINUOUS
10
105.0354064592
20
229.8688137408
11
105.1721533426
21
229.8986294146
0
LINE
5
36F
100
AcDbEntity
8
0
100
AcDbLine
62
7
6
CONTINUOUS
10
105.1235054621
20
230.1162235613
11
104.9867585787
21
230.0864078875
0
LINE
5
370
100
AcDbEntity
8
0
100
AcDbLine
62
7
6
CONTINUOUS
10
104.7708901056
20
230.9936363574
11
104.9076369890
21
231.0234520312
0
LINE
5
371
100
AcDbEntity
8
0
100
AcDbLine
62
7
6
CONTINUOUS
10
104.8012536654
20
231.2077114459
11
104.6645072588
21
231.1778976794
0
LINE
5
372
100
AcDbEntity
8
0
100
AcDbLine
62
7
6
CONTINUOUS
10
113.3156071791
20
230.6438438769
11
112.4808515200
21
230.6438438769
0
LINE
5
373
100
AcDbEntity
8
0
100
AcDbLine
62
7
6
CONTINUOUS
10
111.0895920062
20
230.6438438769
11
110.9040907436
21
230.6438438769
0
LINE
5
374
100
AcDbEntity
8
0
100
AcDbLine
62
7
6
CONTINUOUS
10
108.3070729860
20
231.5318825122
11
109.0954533705
21
231.5318825122
0
LINE
5
375
100
AcDbEntity
8
0
100
AcDbLine
62
7
6
CONTINUOUS
10
109.1882040390
20
231.8870975848
11
108.3070729860
21
231.8870975848
0
LINE
5
376
100
AcDbEntity
8
0
100
AcDbLine
62
7
6
CONTINUOUS
10
104.8802655825
20
231.2041923876
11
104.8012536654
21
231.2077114459
0
LINE
5
377
100
AcDbEntity
8
0
100
AcDbLine
62
7
6
CONTINUOUS
10
109.3737052569
20
233.0119449969
11
109.1418287644
21
233.0711471911
0
LINE
5
378
100
AcDbEntity
8
0
100
AcDbLine
62
7
6
CONTINUOUS
10
113.3156071791
20
232.7159321185
11
113.5011085161
21
232.6567299243
0
LINE
5
379
100
AcDbEntity
8
0
100
AcDbLine
62
7
6
CONTINUOUS
10
113.7329851278
20
232.8935406085
11
113.5474837908
21
233.0119449969
0
LINE
5
37A
100
AcDbEntity
8
0
100
AcDbLine
62
7
6
CONTINUOUS
10
133.9732280799
20
211.6832617870
11
127.7299095955
21
196.6105576276
0
LINE
5
37B
100
AcDbEntity
8
0
100
AcDbLine
62
7
6
CONTINUOUS
10
112.4808515200
20
232.7159321185
11
113.3156071791
21
232.7159321185
0
LINE
5
37C
100
AcDbEntity
8
0
100
AcDbLine
62
7
6
CONTINUOUS
10
108.3070729860
20
232.7751343127
11
109.1882040390
21
232.7751343127
0
LINE
5
37D
100
AcDbEntity
8
0
100
AcDbLine
62
7
6
CONTINUOUS
10
113.3156071791
20
233.0711471911
11
112.2025996336
21
233.0711471911
0
LINE
5
37E
100
AcDbEntity
8
0
100
AcDbLine
62
7
6
CONTINUOUS
10
111.8315970787
20
233.0711471911
11
111.5533451923
21
233.0711471911
0
LINE
5
37F
100
AcDbEntity
8
0
100
AcDbLine
62
7
6
CONTINUOUS
10
110.4403375873
20
233.0711471911
11
110.1620857009
21
233.0711471911
0
LINE
5
380
100
AcDbEntity
8
0
100
AcDbLine
62
7
6
CONTINUOUS
10
109.1418287644
20
233.0711471911
11
108.0288210997
21
233.0711471911
0
LINE
5
381
100
AcDbEntity
8
0
100
AcDbLine
62
7
6
CONTINUOUS
10
113.5474837908
20
233.0119449969
11
113.3156071791
21
233.0711471911
0
LINE
5
382
100
AcDbEntity
8
0
100
AcDbLine
62
7
6
CONTINUOUS
10
111.7841879739
20
235.4030356224
11
126.7088418362
21
229.2210415789
0
LINE
5
383
100
AcDbEntity
8
0
100
AcDbLine
62
7
6
CONTINUOUS
10
127.7912340365
20
228.1386493787
11
133.9732280799
21
213.2139955164
0
LINE
5
384
100
AcDbEntity
8
0
100
AcDbLine
62
7
6
CONTINUOUS
10
123.0188211092
20
190.4486286517
11
123.5188211092
21
190.9486286517
0
LINE
5
385
100
AcDbEntity
8
0
100
AcDbLine
62
7
6
CONTINUOUS
10
283.3771299559
20
190.4486286517
11
282.8771299559
21
190.9486286517
0
LINE
5
386
100
AcDbEntity
8
0
100
AcDbLine
62
7
6
CONTINUOUS
10
283.3773396992
20
190.4486286517
11
307.3769202125
21
190.4486286517
0
LINE
5
387
100
AcDbEntity
8
0
100
AcDbLine
62
7
6
CONTINUOUS
10
282.8771299559
20
190.9486286517
11
307.8771299559
21
190.9486286517
0
LINE
5
388
100
AcDbEntity
8
DEFAULT_2
100
AcDbLine
62
8
6
HIDDEN
10
298.3771299559
20
191.4486286517
11
292.3771299559
21
191.4486286517
0
LINE
5
389
100
AcDbEntity
8
0
100
AcDbLine
62
7
6
CONTINUOUS
10
300.7818283275
20
195.9932410600
11
297.9779055036
21
195.9932410600
0
LINE
5
38A
100
AcDbEntity
8
0
100
AcDbLine
62
7
6
CONTINUOUS
10
292.7763558006
20
195.9932410600
11
289.9724315843
21
195.9932410600
0
LINE
5
38B
100
AcDbEntity
8
0
100
AcDbLine
62
7
6
CONTINUOUS
10
282.8771299559
20
190.9486286517
11
282.8771299559
21
196.4670961408
0
LINE
5
38C
100
AcDbEntity
8
0
100
AcDbLine
62
7
6
CONTINUOUS
10
284.1424782583
20
197.9486286517
11
288.4100818154
21
198.6245506526
0
LINE
5
38D
100
AcDbEntity
8
0
100
AcDbLine
62
7
6
CONTINUOUS
10
306.6117816534
20
197.9486286517
11
302.3332523542
21
198.6262811201
0
LINE
5
38E
100
AcDbEntity
8
DEFAULT_2
100
AcDbLine
62
8
6
HIDDEN
10
298.3771299559
20
191.4486286517
11
299.3771299559
21
190.4486286517
0
LINE
5
38F
100
AcDbEntity
8
0
100
AcDbLine
62
7
6
CONTINUOUS
10
290.3771299559
20
234.5552765495
11
290.3771299559
21
212.9028677013
0
LINE
5
390
100
AcDbEntity
8
0
100
AcDbLine
62
7
6
CONTINUOUS
10
290.3369807044
20
212.0081809886
11
288.8237115286
21
195.4072271101
0
LINE
5
391
100
AcDbEntity
8
DEFAULT_2
100
AcDbLine
62
8
6
HIDDEN
10
292.3771299559
20
199.9486339878
11
292.3771299559
21
191.4486286517
0
LINE
5
392
100
AcDbEntity
8
DEFAULT_1
100
AcDbLine
62
2
6
CENTER
10
295.3771299559
20
236.5624999720
11
295.3771299559
21
187.4486286517
0
LINE
5
393
100
AcDbEntity
8
DEFAULT_2
100
AcDbLine
62
8
6
HIDDEN
10
298.3771299559
20
199.9486339878
11
298.3771299559
21
191.4486286517
0
LINE
5
394
100
AcDbEntity
8
0
100
AcDbLine
62
7
6
CONTINUOUS
10
300.3771299559
20
215.7686285849
11
300.6771299559
21
215.7686285849
0
LINE
5
395
100
AcDbEntity
8
0
100
AcDbLine
62
7
6
CONTINUOUS
10
301.9305483830
20
195.4072271113
11
300.4172792073
21
212.0081809886
0
LINE
5
396
100
AcDbEntity
8
0
100
AcDbLine
62
7
6
CONTINUOUS
10
300.3771629300
20
212.8938506146
11
300.3771299559
21
234.5552765495
0
LINE
5
397
100
AcDbEntity
8
0
100
AcDbLine
62
7
6
CONTINUOUS
10
300.6771299559
20
233.0711471911
11
300.6771299559
21
227.3986284609
0
LINE
5
398
100
AcDbEntity
8
0
100
AcDbLine
62
7
6
CONTINUOUS
10
300.6771299559
20
225.7458822604
11
300.6771299559
21
221.5217840548
0
LINE
5
399
100
AcDbEntity
8
0
100
AcDbLine
62
7
6
CONTINUOUS
10
300.6771299559
20
220.3507673617
11
300.6771299559
21
215.7686285849
0
LINE
5
39A
100
AcDbEntity
8
0
100
AcDbLine
62
7
6
CONTINUOUS
10
300.3771299559
20
220.3507673617
11
300.6771299559
21
220.3507673617
0
LINE
5
39B
100
AcDbEntity
8
0
100
AcDbLine
62
7
6
CONTINUOUS
10
300.3771299559
20
221.5217840548
11
300.6771299559
21
221.5217840548
0
LINE
5
39C
100
AcDbEntity
8
0
100
AcDbLine
62
7
6
CONTINUOUS
10
307.8771299559
20
190.9486286517
11
307.8771299559
21
196.4670961408
0
LINE
5
39D
100
AcDbEntity
8
DEFAULT_2
100
AcDbLine
62
8
6
HIDDEN
10
292.3771299559
20
191.4486286517
11
291.3771299559
21
190.4486286517
0
LINE
5
39E
100
AcDbEntity
8
0
100
AcDbLine
62
7
6
CONTINUOUS
10
300.3771299559
20
225.7139532443
11
300.6771299559
21
225.7139532443
0
LINE
5
39F
100
AcDbEntity
8
0
100
AcDbLine
62
7
6
CONTINUOUS
10
300.3771299559
20
225.7458822604
11
300.6771299559
21
225.7458822604
0
LINE
5
3A0
100
AcDbEntity
8
0
100
AcDbLine
62
7
6
CONTINUOUS
10
300.3771299559
20
227.3986284609
11
300.6771299559
21
227.3986284609
0
LINE
5
3A1
100
AcDbEntity
8
0
100
AcDbLine
62
7
6
CONTINUOUS
10
300.3771299559
20
233.0711471911
11
300.6771299559
21
233.0711471911
0
LINE
5
3A2
100
AcDbEntity
8
0
100
AcDbLine
62
7
6
CONTINUOUS
10
299.3771299559
20
235.5552765574
11
291.3771299559
21
235.5552765574
0
LINE
5
3A3
100
AcDbEntity
8
0
100
AcDbLine
62
7
6
CONTINUOUS
10
307.3771299559
20
190.4486286517
11
307.8771299559
21
190.9486286517
0
LINE
5
3A4
100
AcDbEntity
8
0
100
AcDbLine
62
7
6
CONTINUOUS
10
87.9121732035
20
108.6134591334
11
87.9121732035
21
116.6134591334
0
LINE
5
3A5
100
AcDbEntity
8
0
100
AcDbLine
62
7
6
CONTINUOUS
10
90.8075593599
20
107.6134591334
11
90.8075593599
21
107.3134591334
0
LINE
5
3A6
100
AcDbEntity
8
0
100
AcDbLine
62
7
6
CONTINUOUS
10
88.2521975830
20
117.3647461493
11
88.2496153121
21
117.3624697823
0
LINE
5
3A7
100
AcDbEntity
8
0
100
AcDbLine
62
7
6
CONTINUOUS
10
88.2522317786
20
107.8621420795
11
88.2496395822
21
107.8644270158
0
LINE
5
3A8
100
AcDbEntity
8
0
100
AcDbLine
62
7
6
CONTINUOUS
10
96.8369258532
20
107.6134591334
11
96.8369258532
21
107.3134591334
0
LINE
5
3A9
100
AcDbEntity
8
0
100
AcDbLine
62
7
6
CONTINUOUS
10
99.8177569994
20
107.6134591334
11
99.8177569994
21
107.3134591334
0
LINE
5
3AA
100
AcDbEntity
8
0
100
AcDbLine
62
7
6
CONTINUOUS
10
99.8420261034
20
107.6134591334
11
99.8420261034
21
107.3134591334
0
LINE
5
3AB
100
AcDbEntity
8
0
100
AcDbLine
62
7
6
CONTINUOUS
10
133.2642745864
20
107.6060911571
11
127.0209561020
21
106.2321304337
0
LINE
5
3AC
100
AcDbEntity
8
0
100
AcDbLine
62
7
6
CONTINUOUS
10
95.0166861164
20
106.2321304337
11
88.7733676344
21
107.6060911566
0
LINE
5
3AD
100
AcDbEntity
8
0
100
AcDbLine
62
7
6
CONTINUOUS
10
122.0868057752
20
106.0377967533
11
122.0868768485
21
106.0378046227
0
LINE
5
3AE
100
AcDbEntity
8
0
100
AcDbLine
62
7
6
CONTINUOUS
10
99.9507640721
20
106.0378047037
11
99.9508351264
21
106.0377968365
0
LINE
5
3AF
100
AcDbEntity
8
0
100
AcDbLine
62
7
6
CONTINUOUS
10
105.8832577356
20
107.6134591334
11
105.8832577356
21
107.3134591334
0
LINE
5
3B0
100
AcDbEntity
8
0
100
AcDbLine
62
7
6
CONTINUOUS
10
105.8893526682
20
107.6134591334
11
105.8893526682
21
107.3134591334
0
LINE
5
3B1
100
AcDbEntity
8
0
100
AcDbLine
62
7
6
CONTINUOUS
10
126.8060300630
20
106.2087607618
11
126.0783441681
21
106.2087607618
0
LINE
5
3B2
100
AcDbEntity
8
0
100
AcDbLine
62
7
6
CONTINUOUS
10
95.9592980254
20
106.2087607618
11
95.2316121554
21
106.2087607618
0
LINE
5
3B3
100
AcDbEntity
8
0
100
AcDbLine
62
7
6
CONTINUOUS
10
114.0576122889
20
107.3134591334
11
112.2025996336
21
107.3134591334
0
LINE
5
3B4
100
AcDbEntity
8
0
100
AcDbLine
62
7
6
CONTINUOUS
10
111.8315970787
20
107.3134591334
11
110.1620857009
21
107.3134591334
0
LINE
5
3B5
100
AcDbEntity
8
0
100
AcDbLine
62
7
6
CONTINUOUS
10
109.7910830864
20
107.3134591334
11
108.0288210997
21
107.3134591334
0
LINE
5
3B6
100
AcDbEntity
8
0
100
AcDbLine
62
7
6
CONTINUOUS
10
105.8893526682
20
107.3134591334
11
99.8177569994
21
107.3134591334
0
LINE
5
3B7
100
AcDbEntity
8
0
100
AcDbLine
62
7
6
CONTINUOUS
10
96.8369258532
20
107.3134591334
11
90.8075593599
21
107.3134591334
0
LINE
5
3B8
100
AcDbEntity
8
0
100
AcDbLine
62
7
6
CONTINUOUS
10
89.0179329781
20
107.6134591334
11
133.0197092403
21
107.6134591334
0
LINE
5
3B9
100
AcDbEntity
8
0
100
AcDbLine
62
7
6
CONTINUOUS
10
108.0288210997
20
107.6134591334
11
108.0288210997
21
107.3134591334
0
LINE
5
3BA
100
AcDbEntity
8
0
100
AcDbLine
62
7
6
CONTINUOUS
10
109.7910830864
20
107.6134591334
11
109.7910830864
21
107.3134591334
0
LINE
5
3BB
100
AcDbEntity
8
0
100
AcDbLine
62
7
6
CONTINUOUS
10
110.1620857009
20
107.6134591334
11
110.1620857009
21
107.3134591334
0
LINE
5
3BC
100
AcDbEntity
8
DEFAULT_1
100
AcDbLine
62
2
6
CENTER
10
111.0188211092
20
112.6134591334
11
111.0188211092
21
97.1134591334
0
LINE
5
3BD
100
AcDbEntity
8
DEFAULT_1
100
AcDbLine
62
2
6
CENTER
10
111.0188211092
20
112.6134591334
11
111.0188211092
21
128.1134591334
0
LINE
5
3BE
100
AcDbEntity
8
DEFAULT_1
100
AcDbLine
62
2
6
CENTER
10
111.0188211092
20
112.6134591334
11
95.5188211092
21
112.6134591334
0
LINE
5
3BF
100
AcDbEntity
8
DEFAULT_1
100
AcDbLine
62
2
6
CENTER
10
111.0188211092
20
112.6134591334
11
126.5188211092
21
112.6134591334
0
LINE
5
3C0
100
AcDbEntity
8
0
100
AcDbLine
62
7
6
CONTINUOUS
10
111.8315970787
20
107.6134591334
11
111.8315970787
21
107.3134591334
0
LINE
5
3C1
100
AcDbEntity
8
0
100
AcDbLine
62
7
6
CONTINUOUS
10
112.2025996336
20
107.6134591334
11
112.2025996336
21
107.3134591334
0
LINE
5
3C2
100
AcDbEntity
8
0
100
AcDbLine
62
7
6
CONTINUOUS
10
114.0112370142
20
107.6134591334
11
114.0112370142
21
107.3134591334
0
LINE
5
3C3
100
AcDbEntity
8
0
100
AcDbLine
62
7
6
CONTINUOUS
10
114.0576122889
20
107.6134591334
11
114.0576122889
21
107.3134591334
0
LINE
5
3C4
100
AcDbEntity
8
0
100
AcDbLine
62
7
6
CONTINUOUS
10
133.0197092403
20
117.6134591334
11
89.0179329781
21
117.6134591334
0
LINE
5
3C5
100
AcDbEntity
8
0
100
AcDbLine
62
7
6
CONTINUOUS
10
95.2316121554
20
119.0181575050
11
95.9592980503
21
119.0181575050
0
LINE
5
3C6
100
AcDbEntity
8
0
100
AcDbLine
62
7
6
CONTINUOUS
10
126.0783441930
20
119.0181575050
11
126.8060300630
21
119.0181575050
0
LINE
5
3C7
100
AcDbEntity
8
0
100
AcDbLine
62
7
6
CONTINUOUS
10
99.9508364432
20
119.1891215136
11
99.9507653699
21
119.1891136442
0
LINE
5
3C8
100
AcDbEntity
8
0
100
AcDbLine
62
7
6
CONTINUOUS
10
122.0868781463
20
119.1891135632
11
122.0868070920
21
119.1891214304
0
LINE
5
3C9
100
AcDbEntity
8
0
100
AcDbLine
62
7
6
CONTINUOUS
10
88.7733676320
20
117.6208271098
11
95.0166861164
21
118.9947878331
0
LINE
5
3CA
100
AcDbEntity
8
0
100
AcDbLine
62
7
6
CONTINUOUS
10
127.0209561020
20
118.9947878331
11
133.2642745843
21
117.6208271102
0
LINE
5
3CB
100
AcDbEntity
8
0
100
AcDbLine
62
7
6
CONTINUOUS
10
133.7879681062
20
107.8643964737
11
133.7853933701
21
107.8621270861
0
LINE
5
3CC
100
AcDbEntity
8
0
100
AcDbLine
62
7
6
CONTINUOUS
10
133.7879674187
20
117.3625224012
11
133.7854689157
21
117.3647248194
0
LINE
5
3CD
100
AcDbEntity
8
0
100
AcDbLine
62
7
6
CONTINUOUS
10
134.1254690149
20
108.6134591334
11
134.1254690149
21
116.6134591334
0
ARC
5
3CE
100
AcDbEntity
8
0
100
AcDbCircle
62
7
6
CONTINUOUS
10
95.2336513102
20
196.9883181048
40
1.0000000000
100
AcDbArc
50
202.5000000000
51
267.2633278853
0
ARC
5
3CF
100
AcDbEntity
8
0
100
AcDbCircle
62
7
6
CONTINUOUS
10
126.8039909082
20
196.9883181048
40
1.0000000000
100
AcDbArc
50
272.7366721147
51
337.5000000000
0
ARC
5
3D0
100
AcDbEntity
8
0
100
AcDbCircle
62
7
6
CONTINUOUS
10
95.0188211092
20
192.4932410600
40
3.5000000000
100
AcDbArc
50
0.0000000000
51
87.5653403274
0
ARC
5
3D1
100
AcDbEntity
8
0
100
AcDbCircle
62
7
6
CONTINUOUS
10
127.0188211092
20
192.4932410600
40
3.5000000000
100
AcDbArc
50
92.4346596726
51
180.0000000000
0
ARC
5
3D2
100
AcDbEntity
8
0
100
AcDbCircle
62
7
6
CONTINUOUS
10
125.9434749715
20
227.3732825139
40
2.0000000000
100
AcDbArc
50
22.5000000000
51
67.5000000000
0
ARC
5
3D3
100
AcDbEntity
8
0
100
AcDbCircle
62
7
6
CONTINUOUS
10
111.0188211092
20
233.5552765574
40
2.0000000000
100
AcDbArc
50
67.5000000000
51
112.5000000000
0
ARC
5
3D4
100
AcDbEntity
8
0
100
AcDbCircle
62
7
6
CONTINUOUS
10
96.0941672470
20
227.3732825139
40
2.0000000000
100
AcDbArc
50
112.5000000000
51
157.5000000000
0
ARC
5
3D5
100
AcDbEntity
8
0
100
AcDbCircle
62
7
6
CONTINUOUS
10
89.9121732035
20
212.4486286517
40
2.0000000000
100
AcDbArc
50
157.5000000000
51
202.5000000000
0
ARC
5
3D6
100
AcDbEntity
8
0
100
AcDbCircle
62
7
6
CONTINUOUS
10
132.1254690149
20
212.4486286517
40
2.0000000000
100
AcDbArc
50
337.5000000000
51
22.5000000000
0
CIRCLE
5
3D7
100
AcDbEntity
8
0
100
AcDbCircle
62
7
6
CONTINUOUS
10
111.0188211092
20
212.4486286517
40
12.5000000000
0
ARC
5
3D8
100
AcDbEntity
8
0
100
AcDbCircle
62
7
6
CONTINUOUS
10
95.2316121554
20
196.9932410600
40
1.0000000000
100
AcDbArc
50
202.5000000000
51
270.0000000000
0
ARC
5
3D9
100
AcDbEntity
8
0
100
AcDbCircle
62
7
6
CONTINUOUS
10
126.8060300630
20
196.9932410600
40
1.0000000000
100
AcDbArc
50
270.0000000000
51
337.5000000000
0
ARC
5
3DA
100
AcDbEntity
8
DEFAULT_2
100
AcDbCircle
62
8
6
HIDDEN
10
295.3771299559
20
229.9486286517
40
5.0000000000
100
AcDbArc
50
180.0000000000
51
360.0000000000
0
ARC
5
3DB
100
AcDbEntity
8
0
100
AcDbCircle
62
7
6
CONTINUOUS
10
302.4896717663
20
199.6139644628
40
0.9999995594
100
AcDbArc
50
215.0160785335
51
261.0000000008
0
ARC
5
3DC
100
AcDbEntity
8
0
100
AcDbCircle
62
7
6
CONTINUOUS
10
291.3771299559
20
234.5552765574
40
1.0000000000
100
AcDbArc
50
90.0000000000
51
180.0000000000
0
ARC
5
3DD
100
AcDbEntity
8
0
100
AcDbCircle
62
7
6
CONTINUOUS
10
299.3771299559
20
234.5552765574
40
1.0000000000
100
AcDbArc
50
0.0000000000
51
90.0000000000
0
ARC
5
3DE
100
AcDbEntity
8
0
100
AcDbCircle
62
7
6
CONTINUOUS
10
284.3771299559
20
196.4670961408
40
1.5000000000
100
AcDbArc
50
99.0000000000
51
180.0000000000
0
ARC
5
3DF
100
AcDbEntity
8
0
100
AcDbCircle
62
7
6
CONTINUOUS
10
306.3771299559
20
196.4670961408
40
1.5000000000
100
AcDbArc
50
0.0000000000
51
81.0000000000
0
ARC
5
3E0
100
AcDbEntity
8
0
100
AcDbCircle
62
7
6
CONTINUOUS
10
310.3771299559
20
212.9034635409
40
10.0000000000
100
AcDbArc
50
180.0000000000
51
185.2084342387
0
ARC
5
3E1
100
AcDbEntity
8
0
100
AcDbCircle
62
7
6
CONTINUOUS
10
280.3771299559
20
212.9033588455
40
9.9999913599
100
AcDbArc
50
354.7921631451
51
0.0005998602
0
ARC
5
3E2
100
AcDbEntity
8
0
100
AcDbCircle
62
7
6
CONTINUOUS
10
300.7818283275
20
196.9932410600
40
1.0000000000
100
AcDbArc
50
270.0000000000
51
5.2084342388
0
ARC
5
3E3
100
AcDbEntity
8
0
100
AcDbCircle
62
7
6
CONTINUOUS
10
289.9724315843
20
196.9932410600
40
1.0000000000
100
AcDbArc
50
174.7915657612
51
270.0000000000
0
CIRCLE
5
3E4
100
AcDbEntity
8
DEFAULT_2
100
AcDbCircle
62
8
6
HIDDEN
10
111.0188211092
20
112.6134591334
40
3.0000000000
0
ARC
5
3E5
100
AcDbEntity
8
0
100
AcDbCircle
62
7
6
CONTINUOUS
10
133.1254690149
20
116.6134591334
40
1.0000000000
100
AcDbArc
50
0.0000000000
51
48.4027836255
0
ARC
5
3E6
100
AcDbEntity
8
0
100
AcDbCircle
62
7
6
CONTINUOUS
10
88.9121732035
20
116.6134591334
40
1.0000000000
100
AcDbArc
50
131.6044424929
51
180.0000000000
0
ARC
5
3E7
100
AcDbEntity
8
0
100
AcDbCircle
62
7
6
CONTINUOUS
10
88.9121732035
20
108.6134591334
40
1.0000000000
100
AcDbArc
50
180.0000000000
51
228.3983962662
0
ARC
5
3E8
100
AcDbEntity
8
0
100
AcDbCircle
62
7
6
CONTINUOUS
10
133.1254690149
20
108.6134591334
40
1.0000000000
100
AcDbArc
50
311.5969900693
51
360.0000000000
0
ARC
5
3E9
100
AcDbEntity
8
0
100
AcDbCircle
62
7
6
CONTINUOUS
10
111.0188211092
20
112.6134591334
40
12.5000000000
100
AcDbArc
50
213.5499037529
51
326.4500962471
0
ARC
5
3EA
100
AcDbEntity
8
0
100
AcDbCircle
62
7
6
CONTINUOUS
10
111.0188211092
20
112.6134591334
40
12.5000000000
100
AcDbArc
50
33.5499037529
51
146.4500962471
0
SPLINE
5
3EB
100
AcDbEntity
8
0
100
AcDbSpline
62
7
6
CONTINUOUS
70
0
71
3
72
20
73
16
74
14
42
0.0000001000
43
0.0000001000
44
0.0000000001
40
0.0000000000
40
0.0000000000
40
0.0000000000
40
0.0000000000
40
0.1273110132
40
0.2505898288
40
0.3610128740
40
0.4588917637
40
0.5465832960
40
0.6255924239
40
0.6965574686
40
0.7602271303
40
0.8174631332
40
0.8691679683
40
0.9162394585
40
0.9595500714
40
1.0000000000
40
1.0000000000
40
1.0000000000
40
1.0000000000
10
126.0783441930
20
195.9932410600
30
0.0000000000
10
125.8228360578
20
195.9932268386
30
0.0000000000
10
125.3188662250
20
195.9472900573
30
0.0000000000
10
124.6158136996
20
195.7600177969
30
0.0000000000
10
124.0038589092
20
195.4928810592
30
0.0000000000
10
123.4944090258
20
195.1843588493
30
0.0000000000
10
123.0754117365
20
194.8562607937
30
0.0000000000
10
122.7343014572
20
194.5215124518
30
0.0000000000
10
122.4613860680
20
194.1898028510
30
0.0000000000
10
122.2480582225
20
193.8684350059
30
0.0000000000
10
122.0857551969
20
193.5617612439
30
0.0000000000
10
121.9664207643
20
193.2717771393
30
0.0000000000
10
121.8828788495
20
192.9987011759
30
0.0000000000
10
121.8290298536
20
192.7413689581
30
0.0000000000
10
121.8091489527
20
192.5741970899
30
0.0000000000
10
121.8031040895
20
192.4932410600
30
0.0000000000
11
126.0783441930
21
195.9932410600
31
0.0000000000
11
125.3148763861
21
195.9248555793
31
0.0000000000
11
124.5974028487
21
195.7346915127
31
0.0000000000
11
123.9879906530
21
195.4689204125
31
0.0000000000
11
123.4839745490
21
195.1635314494
31
0.0000000000
11
123.0685067584
21
194.8377252908
31
0.0000000000
11
122.7293252136
21
194.5041826796
31
0.0000000000
11
122.4582610302
21
194.1739015545
31
0.0000000000
11
122.2466568319
21
193.8542471869
31
0.0000000000
11
122.0858282036
21
193.5494669557
31
0.0000000000
11
121.9676656110
21
193.2614553771
31
0.0000000000
11
121.8849914300
21
192.9903700766
31
0.0000000000
11
121.8317543986
21
192.7350941810
31
0.0000000000
11
121.8031040895
21
192.4932410600
31
0.0000000000
0
SPLINE
5
3EC
100
AcDbEntity
8
0
100
AcDbSpline
62
7
6
CONTINUOUS
70
0
71
3
72
21
73
17
74
15
42
0.0000001000
43
0.0000001000
44
0.0000000001
40
0.0000000000
40
0.0000000000
40
0.0000000000
40
0.0000000000
40
0.0374628995
40
0.0773467090
40
0.1203653620
40
0.1672184263
40
0.2186201834
40
0.2752948572
40
0.3379502494
40
0.4072301499
40
0.4836534777
40
0.5679395687
40
0.6615594387
40
0.7662855349
40
0.8816375527
40
1.0000000000
40
1.0000000000
40
1.0000000000
40
1.0000000000
10
100.2345391318
20
192.4932410600
30
0.0000000000
10
100.2289401214
20
192.5682260156
30
0.0000000000
10
100.2110822769
20
192.7226386059
30
0.0000000000
10
100.1638569278
20
192.9598353751
30
0.0000000000
10
100.0917340352
20
193.2104178016
30
0.0000000000
10
99.9900013632
20
193.4754824821
30
0.0000000000
10
99.8531127959
20
193.7551655892
30
0.0000000000
10
99.6748107933
20
194.0483814441
30
0.0000000000
10
99.4483449632
20
194.3524550923
30
0.0000000000
10
99.1668337518
20
194.6626419092
30
0.0000000000
10
98.8232163664
20
194.9721203688
30
0.0000000000
10
98.4090619620
20
195.2722940814
30
0.0000000000
10
97.9136246690
20
195.5513608521
30
0.0000000000
10
97.3285826767
20
195.7892814454
30
0.0000000000
10
96.6668204693
20
195.9534132204
30
0.0000000000
10
96.1968693408
20
195.9932277940
30
0.0000000000
10
95.9592980254
20
195.9932410600
30
0.0000000000
11
100.2345391318
21
192.4932410600
31
0.0000000000
11
100.2087113265
21
192.7173387103
31
0.0000000000
11
100.1619499275
21
192.9529007501
31
0.0000000000
11
100.0904826559
21
193.2018815967
31
0.0000000000
11
99.9896253008
21
193.4653611682
31
0.0000000000
11
99.8538409815
21
193.7434997820
31
0.0000000000
11
99.6768476633
21
194.0352778066
31
0.0000000000
11
99.4518245583
21
194.3381014726
31
0.0000000000
11
99.1717755558
21
194.6472935887
31
0.0000000000
11
98.8300808589
21
194.9555303565
31
0.0000000000
11
98.4192888066
21
195.2535761114
31
0.0000000000
11
97.9281421331
21
195.5302778208
31
0.0000000000
11
97.3438976397
21
195.7675938312
31
0.0000000000
11
96.6695491032
21
195.9340415910
31
0.0000000000
11
95.9592980254
21
195.9932410600
31
0.0000000000
0
SPLINE
5
3ED
100
AcDbEntity
8
0
100
AcDbSpline
62
7
6
CONTINUOUS
70
0
71
3
72
26
73
22
74
20
42
0.0000001000
43
0.0000001000
44
0.0000000001
40
0.0000000000
40
0.0000000000
40
0.0000000000
40
0.0000000000
40
0.0555547948
40
0.1503973472
40
0.2350067330
40
0.3101740991
40
0.3768410629
40
0.4360039851
40
0.4885480646
40
0.5347249324
40
0.5752765190
40
0.6109238358
40
0.6422047557
40
0.6694360702
40
0.6942612206
40
0.7216711012
40
0.7531466993
40
0.7904959073
40
0.8371404429
40
0.9004521208
40
1.0000000000
40
1.0000000000
40
1.0000000000
40
1.0000000000
10
289.1821837047
20
199.3397583932
30
0.0000000000
10
289.1813879850
20
199.3310295517
30
0.0000000000
10
289.1788008483
20
199.3074367354
30
0.0000000000
10
289.1729250305
20
199.2708126036
30
0.0000000000
10
289.1641678404
20
199.2315929253
30
0.0000000000
10
289.1544723910
20
199.1971986752
30
0.0000000000
10
289.1443532812
20
199.1671397067
30
0.0000000000
10
289.1341749024
20
199.1408999018
30
0.0000000000
10
289.1242211485
20
199.1180646552
30
0.0000000000
10
289.1147014989
20
199.0982610641
30
0.0000000000
10
289.1057624840
20
199.0811488731
30
0.0000000000
10
289.0974671448
20
199.0663609072
30
0.0000000000
10
289.0898574008
20
199.0536042920
30
0.0000000000
10
289.0828582554
20
199.0424759226
30
0.0000000000
10
289.0759577664
20
199.0320105691
30
0.0000000000
10
289.0684671917
20
199.0211355381
30
0.0000000000
10
289.0596006219
20
199.0088131471
30
0.0000000000
10
289.0486406532
20
198.9942640725
30
0.0000000000
10
289.0342100512
20
198.9760496956
30
0.0000000000
10
289.0129298964
20
198.9507591437
30
0.0000000000
10
288.9955914906
20
198.9317906515
30
0.0000000000
10
288.9847197865
20
198.9204570966
30
0.0000000000
11
289.1821837047
21
199.3397583932
31
0.0000000000
11
289.1793165958
21
199.3136208770
31
0.0000000000
11
289.1721984697
21
199.2693085786
31
0.0000000000
11
289.1634657136
21
199.2302346022
31
0.0000000000
11
289.1538085355
21
199.1960007599
31
0.0000000000
11
289.1437382224
21
199.1661037941
31
0.0000000000
11
289.1336097528
21
199.1400037036
31
0.0000000000
11
289.1236712859
21
199.1172119861
31
0.0000000000
11
289.1142016150
21
199.0975192090
31
0.0000000000
11
289.1053150163
21
199.0805115394
31
0.0000000000
11
289.0970610884
21
199.0658001955
31
0.0000000000
11
289.0894771415
21
199.0530881790
31
0.0000000000
11
289.0826155781
21
199.0421808078
31
0.0000000000
11
289.0761509892
21
199.0323720054
31
0.0000000000
11
289.0687971492
21
199.0216875445
31
0.0000000000
11
289.0601017424
21
199.0095946828
31
0.0000000000
11
289.0494723286
21
198.9954742915
31
0.0000000000
11
289.0357713946
21
198.9781686530
31
0.0000000000
11
289.0164902350
21
198.9552379173
31
0.0000000000
11
288.9847197865
21
198.9204570966
31
0.0000000000
0
SPLINE
5
3EE
100
AcDbEntity
8
0
100
AcDbSpline
62
7
6
CONTINUOUS
70
0
71
3
72
12
73
8
74
6
42
0.0000001000
43
0.0000001000
44
0.0000000001
40
0.0000000000
40
0.0000000000
40
0.0000000000
40
0.0000000000
40
0.1331558614
40
0.3330892464
40
0.5710865522
40
0.8451483718
40
1.0000000000
40
1.0000000000
40
1.0000000000
40
1.0000000000
10
288.9847197865
20
198.9204570966
30
0.0000000000
10
288.9648554855
20
198.8997489224
30
0.0000000000
10
288.9128800025
20
198.8501265648
30
0.0000000000
10
288.8149380519
20
198.7750598476
30
0.0000000000
10
288.6806567165
20
198.6996024426
30
0.0000000000
10
288.5448276292
20
198.6505870636
30
0.0000000000
10
288.4540390110
20
198.6315191580
30
0.0000000000
10
288.4210154237
20
198.6262879559
30
0.0000000000
11
288.9847197865
21
198.9204570966
31
0.0000000000
11
288.9224770537
21
198.8610079924
31
0.0000000000
11
288.8199053590
21
198.7823875486
31
0.0000000000
11
288.6857914883
21
198.7070179325
31
0.0000000000
11
288.5191468963
21
198.6469109346
31
0.0000000000
11
288.4210154237
21
198.6262879559
31
0.0000000000
0
SPLINE
5
3EF
100
AcDbEntity
8
0
100
AcDbSpline
62
7
6
CONTINUOUS
70
0
71
3
72
8
73
4
74
2
42
0.0000001000
43
0.0000001000
44
0.0000000001
40
0.0000000000
40
0.0000000000
40
0.0000000000
40
0.0000000000
40
1.0000000000
40
1.0000000000
40
1.0000000000
40
1.0000000000
10
301.6672015331
20
199.0453985040
30
0.0000000000
10
301.6649741893
20
199.0487994450
30
0.0000000000
10
301.6627903366
20
199.0522281870
30
0.0000000000
10
301.6606492511
20
199.0556833719
30
0.0000000000
11
301.6672015331
21
199.0453985040
31
0.0000000000
11
301.6606492511
21
199.0556833719
31
0.0000000000
0
SPLINE
5
3F0
100
AcDbEntity
8
0
100
AcDbSpline
62
7
6
CONTINUOUS
70
0
71
3
72
9
73
5
74
3
42
0.0000001000
43
0.0000001000
44
0.0000000001
40
0.0000000000
40
0.0000000000
40
0.0000000000
40
0.0000000000
40
0.0179716992
40
1.0000000000
40
1.0000000000
40
1.0000000000
40
1.0000000000
10
301.6606492511
20
199.0556833719
30
0.0000000000
10
301.6606132616
20
199.0557414500
30
0.0000000000
10
301.6586113704
20
199.0589735102
30
0.0000000000
10
301.6566468810
20
199.0622286824
30
0.0000000000
10
301.6547532052
20
199.0654465902
30
0.0000000000
11
301.6606492511
21
199.0556833719
31
0.0000000000
11
301.6605413189
21
199.0558576287
31
0.0000000000
11
301.6547532052
21
199.0654465902
31
0.0000000000
0
SPLINE
5
3F1
100
AcDbEntity
8
0
100
AcDbSpline
62
7
6
CONTINUOUS
70
0
71
3
72
8
73
4
74
2
42
0.0000001000
43
0.0000001000
44
0.0000000001
40
0.0000000000
40
0.0000000000
40
0.0000000000
40
0.0000000000
40
1.0000000000
40
1.0000000000
40
1.0000000000
40
1.0000000000
10
301.6299266174
20
199.1130273988
30
0.0000000000
10
301.6242484581
20
199.1253419706
30
0.0000000000
10
301.6190015803
20
199.1378693685
30
0.0000000000
10
301.6141592637
20
199.1505594692
30
0.0000000000
11
301.6299266174
21
199.1130273988
31
0.0000000000
11
301.6141592637
21
199.1505594692
31
0.0000000000
0
SPLINE
5
3F2
100
AcDbEntity
8
0
100
AcDbSpline
62
7
6
CONTINUOUS
70
0
71
3
72
8
73
4
74
2
42
0.0000001000
43
0.0000001000
44
0.0000000001
40
0.0000000000
40
0.0000000000
40
0.0000000000
40
0.0000000000
40
1.0000000000
40
1.0000000000
40
1.0000000000
40
1.0000000000
10
301.6141592637
20
199.1505594692
30
0.0000000000
10
301.6093222570
20
199.1632356544
30
0.0000000000
10
301.6048884792
20
199.1760738500
30
0.0000000000
10
301.6008550807
20
199.1890420249
30
0.0000000000
11
301.6141592637
21
199.1505594692
31
0.0000000000
11
301.6008550807
21
199.1890420249
31
0.0000000000
0
SPLINE
5
3F3
100
AcDbEntity
8
0
100
AcDbSpline
62
7
6
CONTINUOUS
70
0
71
3
72
10
73
6
74
4
42
0.0000001000
43
0.0000001000
44
0.0000000001
40
0.0000000000
40
0.0000000000
40
0.0000000000
40
0.0000000000
40
0.0695722542
40
0.4673881460
40
1.0000000000
40
1.0000000000
40
1.0000000000
40
1.0000000000
10
301.6706822637
20
199.0401592621
30
0.0000000000
10
301.6672560621
20
199.0452430873
30
0.0000000000
10
301.6449092083
20
199.0798320964
30
0.0000000000
10
301.6064912033
20
199.1596485024
30
0.0000000000
10
301.5855764534
20
199.2398923400
30
0.0000000000
10
301.5783438082
20
199.2864418787
30
0.0000000000
11
301.6706822637
21
199.0401592621
31
0.0000000000
11
301.6607005443
21
199.0556006460
31
0.0000000000
11
301.6143809395
21
199.1499828547
31
0.0000000000
11
301.5783438082
21
199.2864418787
31
0.0000000000
0
SPLINE
5
3F4
100
AcDbEntity
8
0
100
AcDbSpline
62
7
6
CONTINUOUS
70
0
71
3
72
8
73
4
74
2
42
0.0000001000
43
0.0000001000
44
0.0000000001
40
0.0000000000
40
0.0000000000
40
0.0000000000
40
0.0000000000
40
1.0000000000
40
1.0000000000
40
1.0000000000
40
1.0000000000
10
301.5783438082
20
199.2864418787
30
0.0000000000
10
301.5761319575
20
199.3006774217
30
0.0000000000
10
301.5743633807
20
199.3149704763
30
0.0000000000
10
301.5730346470
20
199.3292825815
30
0.0000000000
11
301.5783438082
21
199.2864418787
31
0.0000000000
11
301.5730346470
21
199.3292825815
31
0.0000000000
0
SPLINE
5
3F5
100
AcDbEntity
8
0
100
AcDbSpline
62
7
6
CONTINUOUS
70
0
71
3
72
12
73
8
74
6
42
0.0000001000
43
0.0000001000
44
0.0000000001
40
0.0000000000
40
0.0000000000
40
0.0000000000
40
0.0000000000
40
0.0764171411
40
0.3097118150
40
0.5804583227
40
0.8586573106
40
1.0000000000
40
1.0000000000
40
1.0000000000
40
1.0000000000
10
290.3771076098
20
212.9025211849
30
0.0000000000
10
290.3771075944
20
212.8992077105
30
0.0000000000
10
290.3771005155
20
212.8857784948
30
0.0000000000
10
290.3770363710
20
212.8606096608
30
0.0000000000
10
290.3768382007
20
212.8266919607
30
0.0000000000
10
290.3765563782
20
212.7967620849
30
0.0000000000
10
290.3763354133
20
212.7785719350
30
0.0000000000
10
290.3762553333
20
212.7724437862
30
0.0000000000
11
290.3771076098
21
212.9025211849
31
0.0000000000
11
290.3771024485
21
212.8925807626
31
0.0000000000
11
290.3770250868
21
212.8622336449
31
0.0000000000
11
290.3768193999
21
212.8270152555
31
0.0000000000
11
290.3764786598
21
212.7908284431
31
0.0000000000
11
290.3762553333
21
212.7724437862
31
0.0000000000
0
SPLINE
5
3F6
100
AcDbEntity
8
0
100
AcDbSpline
62
7
6
CONTINUOUS
70
0
71
3
72
8
73
4
74
2
42
0.0000001000
43
0.0000001000
44
0.0000000001
40
0.0000000000
40
0.0000000000
40
0.0000000000
40
0.0000000000
40
1.0000000000
40
1.0000000000
40
1.0000000000
40
1.0000000000
10
290.3762553333
20
212.7724437862
30
0.0000000000
10
290.3761926345
20
212.7676457453
30
0.0000000000
10
290.3761264799
20
212.7628477496
30
0.0000000000
10
290.3760568701
20
212.7580498040
30
0.0000000000
11
290.3762553333
21
212.7724437862
31
0.0000000000
11
290.3760568701
21
212.7580498040
31
0.0000000000
0
SPLINE
5
3F7
100
AcDbEntity
8
0
100
AcDbSpline
62
7
6
CONTINUOUS
70
0
71
3
72
9
73
5
74
3
42
0.0000001000
43
0.0000001000
44
0.0000000001
40
0.0000000000
40
0.0000000000
40
0.0000000000
40
0.0000000000
40
0.4444045727
40
1.0000000000
40
1.0000000000
40
1.0000000000
40
1.0000000000
10
290.3760568701
20
212.7580498040
30
0.0000000000
10
290.3760365602
20
212.7566499229
30
0.0000000000
10
290.3759901971
20
212.7534999174
30
0.0000000000
10
290.3759423448
20
212.7503499341
30
0.0000000000
10
290.3759152985
20
212.7485998249
30
0.0000000000
11
290.3760568701
21
212.7580498040
31
0.0000000000
11
290.3759950582
21
212.7538501736
31
0.0000000000
11
290.3759152985
21
212.7485998249
31
0.0000000000
0
SPLINE
5
3F8
100
AcDbEntity
8
0
100
AcDbSpline
62
7
6
CONTINUOUS
70
0
71
3
72
9
73
5
74
3
42
0.0000001000
43
0.0000001000
44
0.0000000001
40
0.0000000000
40
0.0000000000
40
0.0000000000
40
0.0000000000
40
0.6286043385
40
1.0000000000
40
1.0000000000
40
1.0000000000
40
1.0000000000
10
290.3759152985
20
212.7485998249
30
0.0000000000
10
290.3757473027
20
212.7377291603
30
0.0000000000
10
290.3754518350
20
212.7204362624
30
0.0000000000
10
290.3751114859
20
212.7031442042
30
0.0000000000
10
290.3749788915
20
212.6967221366
30
0.0000000000
11
290.3759152985
21
212.7485998249
31
0.0000000000
11
290.3753581036
21
212.7159887108
31
0.0000000000
11
290.3749788915
21
212.6967221366
31
0.0000000000
0
SPLINE
5
3F9
100
AcDbEntity
8
0
100
AcDbSpline
62
7
6
CONTINUOUS
70
0
71
3
72
8
73
4
74
2
42
0.0000001000
43
0.0000001000
44
0.0000000001
40
0.0000000000
40
0.0000000000
40
0.0000000000
40
0.0000000000
40
1.0000000000
40
1.0000000000
40
1.0000000000
40
1.0000000000
10
290.3749788915
20
212.6967221366
30
0.0000000000
10
290.3748447941
20
212.6902272754
30
0.0000000000
10
290.3747043653
20
212.6837325448
30
0.0000000000
10
290.3745576056
20
212.6772379573
30
0.0000000000
11
290.3749788915
21
212.6967221366
31
0.0000000000
11
290.3745576056
21
212.6772379573
31
0.0000000000
0
SPLINE
5
3FA
100
AcDbEntity
8
0
100
AcDbSpline
62
7
6
CONTINUOUS
70
0
71
3
72
9
73
5
74
3
42
0.0000001000
43
0.0000001000
44
0.0000000001
40
0.0000000000
40
0.0000000000
40
0.0000000000
40
0.0000000000
40
0.6632872646
40
1.0000000000
40
1.0000000000
40
1.0000000000
40
1.0000000000
10
290.3745576056
20
212.6772379573
30
0.0000000000
10
290.3742592882
20
212.6640364552
30
0.0000000000
10
290.3737700946
20
212.6441342018
30
0.0000000000
10
290.3732214507
20
212.6242335272
30
0.0000000000
10
290.3730299755
20
212.6175329092
30
0.0000000000
11
290.3745576056
21
212.6772379573
31
0.0000000000
11
290.3735841812
21
212.6376353274
31
0.0000000000
11
290.3730299755
21
212.6175329092
31
0.0000000000
0
SPLINE
5
3FB
100
AcDbEntity
8
0
100
AcDbSpline
62
7
6
CONTINUOUS
70
0
71
3
72
8
73
4
74
2
42
0.0000001000
43
0.0000001000
44
0.0000000001
40
0.0000000000
40
0.0000000000
40
0.0000000000
40
0.0000000000
40
1.0000000000
40
1.0000000000
40
1.0000000000
40
1.0000000000
10
290.3730299755
20
212.6175329092
30
0.0000000000
10
290.3729457078
20
212.6145839856
30
0.0000000000
10
290.3728601347
20
212.6116350993
30
0.0000000000
10
290.3727732563
20
212.6086862515
30
0.0000000000
11
290.3730299755
21
212.6175329092
31
0.0000000000
11
290.3727732563
21
212.6086862515
31
0.0000000000
0
SPLINE
5
3FC
100
AcDbEntity
8
0
100
AcDbSpline
62
7
6
CONTINUOUS
70
0
71
3
72
8
73
4
74
2
42
0.0000001000
43
0.0000001000
44
0.0000000001
40
0.0000000000
40
0.0000000000
40
0.0000000000
40
0.0000000000
40
1.0000000000
40
1.0000000000
40
1.0000000000
40
1.0000000000
10
290.3727732563
20
212.6086862515
30
0.0000000000
10
290.3726833376
20
212.6056342100
30
0.0000000000
10
290.3725920206
20
212.6025822097
30
0.0000000000
10
290.3724993053
20
212.5995302519
30
0.0000000000
11
290.3727732563
21
212.6086862515
31
0.0000000000
11
290.3724993053
21
212.5995302519
31
0.0000000000
0
SPLINE
5
3FD
100
AcDbEntity
8
0
100
AcDbSpline
62
7
6
CONTINUOUS
70
0
71
3
72
12
73
8
74
6
42
0.0000001000
43
0.0000001000
44
0.0000000001
40
0.0000000000
40
0.0000000000
40
0.0000000000
40
0.0000000000
40
0.0153745736
40
0.2916572638
40
0.5721735161
40
0.8562706571
40
1.0000000000
40
1.0000000000
40
1.0000000000
40
1.0000000000
10
290.3724993053
20
212.5995302519
30
0.0000000000
10
290.3724761404
20
212.5987677213
30
0.0000000000
10
290.3720350443
20
212.5843024867
30
0.0000000000
10
290.3711080788
20
212.5559264607
30
0.0000000000
10
290.3695728928
20
212.5142295729
30
0.0000000000
10
290.3681320645
20
212.4791112531
30
0.0000000000
10
290.3671942736
20
212.4579033237
30
0.0000000000
10
290.3668715966
20
212.4507788138
30
0.0000000000
11
290.3724993053
21
212.5995302519
31
0.0000000000
11
290.3724295488
21
212.5972426681
31
0.0000000000
11
290.3710867547
21
212.5561373959
31
0.0000000000
11
290.3695503819
21
212.5144082659
31
0.0000000000
11
290.3678167552
21
212.4721533631
31
0.0000000000
11
290.3668715966
21
212.4507788138
31
0.0000000000
0
SPLINE
5
3FE
100
AcDbEntity
8
0
100
AcDbSpline
62
7
6
CONTINUOUS
70
0
71
3
72
11
73
7
74
5
42
0.0000001000
43
0.0000001000
44
0.0000000001
40
0.0000000000
40
0.0000000000
40
0.0000000000
40
0.0000000000
40
0.1428531900
40
0.4323829732
40
0.7254182558
40
1.0000000000
40
1.0000000000
40
1.0000000000
40
1.0000000000
10
290.3668715966
20
212.4507788138
30
0.0000000000
10
290.3665498110
20
212.4436739850
30
0.0000000000
10
290.3655528932
20
212.4221703802
30
0.0000000000
10
290.3637638205
20
212.3860988441
30
0.0000000000
10
290.3614644076
20
212.3434866850
30
0.0000000000
10
290.3598220609
20
212.3152749148
30
0.0000000000
10
290.3589995950
20
212.3016293066
30
0.0000000000
11
290.3668715966
21
212.4507788138
31
0.0000000000
11
290.3658834950
21
212.4294653737
31
0.0000000000
11
290.3637413314
21
212.3862747672
31
0.0000000000
11
290.3613830180
21
212.3425710770
31
0.0000000000
11
290.3589995950
21
212.3016293066
31
0.0000000000
0
SPLINE
5
3FF
100
AcDbEntity
8
0
100
AcDbSpline
62
7
6
CONTINUOUS
70
0
71
3
72
12
73
8
74
6
42
0.0000001000
43
0.0000001000
44
0.0000000001
40
0.0000000000
40
0.0000000000
40
0.0000000000
40
0.0000000000
40
0.0227030323
40
0.3349038742
40
0.6501878469
40
0.9683596807
40
1.0000000000
40
1.0000000000
40
1.0000000000
40
1.0000000000
10
290.3589995950
20
212.3016293066
30
0.0000000000
10
290.3589343572
20
212.3005469386
30
0.0000000000
10
290.3579694024
20
212.2845805398
30
0.0000000000
10
290.3560216291
20
212.2535876204
30
0.0000000000
10
290.3529860448
20
212.2085235927
30
0.0000000000
10
290.3507072122
20
212.1768393252
30
0.0000000000
10
290.3494668747
20
212.1601778536
30
0.0000000000
10
290.3493543451
20
212.1586708581
30
0.0000000000
11
290.3589995950
21
212.3016293066
31
0.0000000000
11
290.3588033531
21
212.2983822346
31
0.0000000000
11
290.3559975743
21
212.2537367528
31
0.0000000000
11
290.3529613736
21
212.2086635732
31
0.0000000000
11
290.3496909087
21
212.1631919211
31
0.0000000000
11
290.3493543451
21
212.1586708581
31
0.0000000000
0
SPLINE
5
400
100
AcDbEntity
8
0
100
AcDbSpline
62
7
6
CONTINUOUS
70
0
71
3
72
8
73
4
74
2
42
0.0000001000
43
0.0000001000
44
0.0000000001
40
0.0000000000
40
0.0000000000
40
0.0000000000
40
0.0000000000
40
1.0000000000
40
1.0000000000
40
1.0000000000
40
1.0000000000
10
290.3493543451
20
212.1586708581
30
0.0000000000
10
290.3491211182
20
212.1555474832
30
0.0000000000
10
290.3488864234
20
212.1524242180
30
0.0000000000
10
290.3486502609
20
212.1493010637
30
0.0000000000
11
290.3493543451
21
212.1586708581
31
0.0000000000
11
290.3486502609
21
212.1493010637
31
0.0000000000
0
SPLINE
5
401
100
AcDbEntity
8
0
100
AcDbSpline
62
7
6
CONTINUOUS
70
0
71
3
72
8
73
4
74
2
42
0.0000001000
43
0.0000001000
44
0.0000000001
40
0.0000000000
40
0.0000000000
40
0.0000000000
40
0.0000000000
40
1.0000000000
40
1.0000000000
40
1.0000000000
40
1.0000000000
10
300.4081955846
20
212.1158516385
30
0.0000000000
10
300.4074109336
20
212.1257852682
30
0.0000000000
10
300.4066411358
20
212.1357200710
30
0.0000000000
10
300.4058861947
20
212.1456560026
30
0.0000000000
11
300.4081955846
21
212.1158516385
31
0.0000000000
11
300.4058861947
21
212.1456560026
31
0.0000000000
0
SPLINE
5
402
100
AcDbEntity
8
0
100
AcDbSpline
62
7
6
CONTINUOUS
70
0
71
3
72
8
73
4
74
2
42
0.0000001000
43
0.0000001000
44
0.0000000001
40
0.0000000000
40
0.0000000000
40
0.0000000000
40
0.0000000000
40
1.0000000000
40
1.0000000000
40
1.0000000000
40
1.0000000000
10
300.4058861947
20
212.1456560026
30
0.0000000000
10
300.4056133024
20
212.1492475925
30
0.0000000000
10
300.4053423514
20
212.1528393298
30
0.0000000000
10
300.4050733418
20
212.1564312125
30
0.0000000000
11
300.4058861947
21
212.1456560026
31
0.0000000000
11
300.4050733418
21
212.1564312125
31
0.0000000000
0
SPLINE
5
403
100
AcDbEntity
8
0
100
AcDbSpline
62
7
6
CONTINUOUS
70
0
71
3
72
9
73
5
74
3
42
0.0000001000
43
0.0000001000
44
0.0000000001
40
0.0000000000
40
0.0000000000
40
0.0000000000
40
0.0000000000
40
0.1495760537
40
1.0000000000
40
1.0000000000
40
1.0000000000
40
1.0000000000
10
300.4050733418
20
212.1564312125
30
0.0000000000
10
300.4049601891
20
212.1579420546
30
0.0000000000
10
300.4042059964
20
212.1680430549
30
0.0000000000
10
300.4034671569
20
212.1781451980
30
0.0000000000
10
300.4028499359
20
212.1867371002
30
0.0000000000
11
300.4050733418
21
212.1564312125
31
0.0000000000
11
300.4047349143
21
212.1609638157
31
0.0000000000
11
300.4028499359
21
212.1867371002
31
0.0000000000
0
SPLINE
5
404
100
AcDbEntity
8
0
100
AcDbSpline
62
7
6
CONTINUOUS
70
0
71
3
72
10
73
6
74
4
42
0.0000001000
43
0.0000001000
44
0.0000000001
40
0.0000000000
40
0.0000000000
40
0.0000000000
40
0.0000000000
40
0.1704703050
40
0.7296750725
40
1.0000000000
40
1.0000000000
40
1.0000000000
40
1.0000000000
10
300.3953944550
20
212.2994225806
30
0.0000000000
10
300.3950893833
20
212.3044658864
30
0.0000000000
10
300.3937999319
20
212.3260540644
30
0.0000000000
10
300.3921287917
20
212.3556457413
30
0.0000000000
10
300.3908331069
20
212.3801978045
30
0.0000000000
10
300.3904204927
20
212.3881992614
30
0.0000000000
11
300.3953944550
21
212.2994225806
31
0.0000000000
11
300.3944907113
21
212.3145531861
31
0.0000000000
11
300.3916871943
21
212.3641964017
31
0.0000000000
11
300.3904204927
21
212.3881992614
31
0.0000000000
0
SPLINE
5
405
100
AcDbEntity
8
0
100
AcDbSpline
62
7
6
CONTINUOUS
70
0
71
3
72
9
73
5
74
3
42
0.0000001000
43
0.0000001000
44
0.0000000001
40
0.0000000000
40
0.0000000000
40
0.0000000000
40
0.0000000000
40
0.5074759868
40
1.0000000000
40
1.0000000000
40
1.0000000000
40
1.0000000000
10
300.3904204927
20
212.3881992614
30
0.0000000000
10
300.3899946596
20
212.3964570592
30
0.0000000000
10
300.3891757305
20
212.4127303928
30
0.0000000000
10
300.3883965930
20
212.4290056790
30
0.0000000000
10
300.3880225028
20
212.4370220987
30
0.0000000000
11
300.3904204927
21
212.3881992614
31
0.0000000000
11
300.3891737335
21
212.4129742141
31
0.0000000000
11
300.3880225028
21
212.4370220987
31
0.0000000000
0
SPLINE
5
406
100
AcDbEntity
8
0
100
AcDbSpline
62
7
6
CONTINUOUS
70
0
71
3
72
8
73
4
74
2
42
0.0000001000
43
0.0000001000
44
0.0000000001
40
0.0000000000
40
0.0000000000
40
0.0000000000
40
0.0000000000
40
1.0000000000
40
1.0000000000
40
1.0000000000
40
1.0000000000
10
300.3880225028
20
212.4370220987
30
0.0000000000
10
300.3878024063
20
212.4417385710
30
0.0000000000
10
300.3875856515
20
212.4464551993
30
0.0000000000
10
300.3873722387
20
212.4511719787
30
0.0000000000
11
300.3880225028
21
212.4370220987
31
0.0000000000
11
300.3873722387
21
212.4511719787
31
0.0000000000
0
SPLINE
5
407
100
AcDbEntity
8
0
100
AcDbSpline
62
7
6
CONTINUOUS
70
0
71
3
72
9
73
5
74
3
42
0.0000001000
43
0.0000001000
44
0.0000000001
40
0.0000000000
40
0.0000000000
40
0.0000000000
40
0.0000000000
40
0.2202467273
40
1.0000000000
40
1.0000000000
40
1.0000000000
40
1.0000000000
10
300.3873722387
20
212.4511719787
30
0.0000000000
10
300.3872264974
20
212.4543931042
30
0.0000000000
10
300.3865718556
20
212.4690185018
30
0.0000000000
10
300.3859493449
20
212.4836453219
30
0.0000000000
10
300.3854834792
20
212.4950514305
30
0.0000000000
11
300.3873722387
21
212.4511719787
31
0.0000000000
11
300.3869396906
21
212.4608355651
31
0.0000000000
11
300.3854834792
21
212.4950514305
31
0.0000000000
0
SPLINE
5
408
100
AcDbEntity
8
0
100
AcDbSpline
62
7
6
CONTINUOUS
70
0
71
3
72
8
73
4
74
2
42
0.0000001000
43
0.0000001000
44
0.0000000001
40
0.0000000000
40
0.0000000000
40
0.0000000000
40
0.0000000000
40
1.0000000000
40
1.0000000000
40
1.0000000000
40
1.0000000000
10
300.3817274173
20
212.6007162354
30
0.0000000000
10
300.3817059013
20
212.6014274546
30
0.0000000000
10
300.3816844612
20
212.6021386761
30
0.0000000000
10
300.3816630971
20
212.6028498999
30
0.0000000000
11
300.3817274173
21
212.6007162354
31
0.0000000000
11
300.3816630971
21
212.6028498999
31
0.0000000000
0
SPLINE
5
409
100
AcDbEntity
8
0
100
AcDbSpline
62
7
6
CONTINUOUS
70
0
71
3
72
9
73
5
74
3
42
0.0000001000
43
0.0000001000
44
0.0000000001
40
0.0000000000
40
0.0000000000
40
0.0000000000
40
0.0000000000
40
0.9736383397
40
1.0000000000
40
1.0000000000
40
1.0000000000
40
1.0000000000
10
300.3816630971
20
212.6028498999
30
0.0000000000
10
300.3812698069
20
212.6159427557
30
0.0000000000
10
300.3808923019
20
212.6293908997
30
0.0000000000
10
300.3805419506
20
212.6428397523
30
0.0000000000
10
300.3805327336
20
212.6431942868
30
0.0000000000
11
300.3816630971
21
212.6028498999
31
0.0000000000
11
300.3805604412
21
212.6421306846
31
0.0000000000
11
300.3805327336
21
212.6431942868
31
0.0000000000
0
SPLINE
5
40A
100
AcDbEntity
8
0
100
AcDbSpline
62
7
6
CONTINUOUS
70
0
71
3
72
8
73
4
74
2
42
0.0000001000
43
0.0000001000
44
0.0000000001
40
0.0000000000
40
0.0000000000
40
0.0000000000
40
0.0000000000
40
1.0000000000
40
1.0000000000
40
1.0000000000
40
1.0000000000
10
300.3805327336
20
212.6431942868
30
0.0000000000
10
300.3803874606
20
212.6487822752
30
0.0000000000
10
300.3802468753
20
212.6543703854
30
0.0000000000
10
300.3801109781
20
212.6599586096
30
0.0000000000
11
300.3805327336
21
212.6431942868
31
0.0000000000
11
300.3801109781
21
212.6599586096
31
0.0000000000
0
SPLINE
5
40B
100
AcDbEntity
8
0
100
AcDbSpline
62
7
6
CONTINUOUS
70
0
71
3
72
8
73
4
74
2
42
0.0000001000
43
0.0000001000
44
0.0000000001
40
0.0000000000
40
0.0000000000
40
0.0000000000
40
0.0000000000
40
1.0000000000
40
1.0000000000
40
1.0000000000
40
1.0000000000
10
300.3801109781
20
212.6599586096
30
0.0000000000
10
300.3800282532
20
212.6633603355
30
0.0000000000
10
300.3799472656
20
212.6667621036
30
0.0000000000
10
300.3798680152
20
212.6701639121
30
0.0000000000
11
300.3801109781
21
212.6599586096
31
0.0000000000
11
300.3798680152
21
212.6701639121
31
0.0000000000
0
SPLINE
5
40C
100
AcDbEntity
8
0
100
AcDbSpline
62
7
6
CONTINUOUS
70
0
71
3
72
8
73
4
74
2
42
0.0000001000
43
0.0000001000
44
0.0000000001
40
0.0000000000
40
0.0000000000
40
0.0000000000
40
0.0000000000
40
1.0000000000
40
1.0000000000
40
1.0000000000
40
1.0000000000
10
300.3798680152
20
212.6701639121
30
0.0000000000
10
300.3797783537
20
212.6740126191
30
0.0000000000
10
300.3796909158
20
212.6778613779
30
0.0000000000
10
300.3796057018
20
212.6817101859
30
0.0000000000
11
300.3798680152
21
212.6701639121
31
0.0000000000
11
300.3796057018
21
212.6817101859
31
0.0000000000
0
SPLINE
5
40D
100
AcDbEntity
8
0
100
AcDbSpline
62
7
6
CONTINUOUS
70
0
71
3
72
9
73
5
74
3
42
0.0000001000
43
0.0000001000
44
0.0000000001
40
0.0000000000
40
0.0000000000
40
0.0000000000
40
0.0000000000
40
0.3422271551
40
1.0000000000
40
1.0000000000
40
1.0000000000
40
1.0000000000
10
300.3796057018
20
212.6817101859
30
0.0000000000
10
300.3795834558
20
212.6827149577
30
0.0000000000
10
300.3795188950
20
212.6856509469
30
0.0000000000
10
300.3794556282
20
212.6885869643
30
0.0000000000
10
300.3794145730
20
212.6905182087
30
0.0000000000
11
300.3796057018
21
212.6817101859
31
0.0000000000
11
300.3795394184
21
212.6847245115
31
0.0000000000
11
300.3794145730
21
212.6905182087
31
0.0000000000
0
SPLINE
5
40E
100
AcDbEntity
8
0
100
AcDbSpline
62
7
6
CONTINUOUS
70
0
71
3
72
8
73
4
74
2
42
0.0000001000
43
0.0000001000
44
0.0000000001
40
0.0000000000
40
0.0000000000
40
0.0000000000
40
0.0000000000
40
1.0000000000
40
1.0000000000
40
1.0000000000
40
1.0000000000
10
300.3794145730
20
212.6905182087
30
0.0000000000
10
300.3792537798
20
212.6980819457
30
0.0000000000
10
300.3791015751
20
212.7056458652
30
0.0000000000
10
300.3789579602
20
212.7132099477
30
0.0000000000
11
300.3794145730
21
212.6905182087
31
0.0000000000
11
300.3789579602
21
212.7132099477
31
0.0000000000
0
SPLINE
5
40F
100
AcDbEntity
8
0
100
AcDbSpline
62
7
6
CONTINUOUS
70
0
71
3
72
9
73
5
74
3
42
0.0000001000
43
0.0000001000
44
0.0000000001
40
0.0000000000
40
0.0000000000
40
0.0000000000
40
0.0000000000
40
0.5162172352
40
1.0000000000
40
1.0000000000
40
1.0000000000
40
1.0000000000
10
300.3789579602
20
212.7132099477
30
0.0000000000
10
300.3788732879
20
212.7176695664
30
0.0000000000
10
300.3787150474
20
212.7263087110
30
0.0000000000
10
300.3785680122
20
212.7349480532
30
0.0000000000
10
300.3784995020
20
212.7391276610
30
0.0000000000
11
300.3789579602
21
212.7132099477
31
0.0000000000
11
300.3787129009
21
212.7265889697
31
0.0000000000
11
300.3784995020
21
212.7391276610
31
0.0000000000
0
SPLINE
5
410
100
AcDbEntity
8
0
100
AcDbSpline
62
7
6
CONTINUOUS
70
0
71
3
72
8
73
4
74
2
42
0.0000001000
43
0.0000001000
44
0.0000000001
40
0.0000000000
40
0.0000000000
40
0.0000000000
40
0.0000000000
40
1.0000000000
40
1.0000000000
40
1.0000000000
40
1.0000000000
10
300.3784995020
20
212.7391276610
30
0.0000000000
10
300.3784561276
20
212.7417738024
30
0.0000000000
10
300.3784138045
20
212.7444199610
30
0.0000000000
10
300.3783725328
20
212.7470661360
30
0.0000000000
11
300.3784995020
21
212.7391276610
31
0.0000000000
11
300.3783725328
21
212.7470661360
31
0.0000000000
0
SPLINE
5
411
100
AcDbEntity
8
0
100
AcDbSpline
62
7
6
CONTINUOUS
70
0
71
3
72
8
73
4
74
2
42
0.0000001000
43
0.0000001000
44
0.0000000001
40
0.0000000000
40
0.0000000000
40
0.0000000000
40
0.0000000000
40
1.0000000000
40
1.0000000000
40
1.0000000000
40
1.0000000000
10
300.3783725328
20
212.7470661360
30
0.0000000000
10
300.3783297161
20
212.7498113707
30
0.0000000000
10
300.3782880309
20
212.7525566231
30
0.0000000000
10
300.3782474773
20
212.7553018922
30
0.0000000000
11
300.3783725328
21
212.7470661360
31
0.0000000000
11
300.3782474773
21
212.7553018922
31
0.0000000000
0
SPLINE
5
412
100
AcDbEntity
8
0
100
AcDbSpline
62
7
6
CONTINUOUS
70
0
71
3
72
8
73
4
74
2
42
0.0000001000
43
0.0000001000
44
0.0000000001
40
0.0000000000
40
0.0000000000
40
0.0000000000
40
0.0000000000
40
1.0000000000
40
1.0000000000
40
1.0000000000
40
1.0000000000
10
300.3782474773
20
212.7553018922
30
0.0000000000
10
300.3782055442
20
212.7581405402
30
0.0000000000
10
300.3781648211
20
212.7609792060
30
0.0000000000
10
300.3781253080
20
212.7638178887
30
0.0000000000
11
300.3782474773
21
212.7553018922
31
0.0000000000
11
300.3781253080
21
212.7638178887
31
0.0000000000
0
SPLINE
5
413
100
AcDbEntity
8
0
100
AcDbSpline
62
7
6
CONTINUOUS
70
0
71
3
72
9
73
5
74
3
42
0.0000001000
43
0.0000001000
44
0.0000000001
40
0.0000000000
40
0.0000000000
40
0.0000000000
40
0.0000000000
40
0.1278490654
40
1.0000000000
40
1.0000000000
40
1.0000000000
40
1.0000000000
10
300.3781253080
20
212.7638178887
30
0.0000000000
10
300.3781099030
20
212.7649246027
30
0.0000000000
10
300.3779908483
20
212.7735810331
30
0.0000000000
10
300.3778830455
20
212.7822376162
30
0.0000000000
10
300.3777975882
20
212.7897875600
30
0.0000000000
11
300.3781253080
21
212.7638178887
31
0.0000000000
11
300.3780796449
21
212.7671380383
31
0.0000000000
11
300.3777975882
21
212.7897875600
31
0.0000000000
0
SPLINE
5
414
100
AcDbEntity
8
0
100
AcDbSpline
62
7
6
CONTINUOUS
70
0
71
3
72
9
73
5
74
3
42
0.0000001000
43
0.0000001000
44
0.0000000001
40
0.0000000000
40
0.0000000000
40
0.0000000000
40
0.0000000000
40
0.5735239252
40
1.0000000000
40
1.0000000000
40
1.0000000000
40
1.0000000000
10
300.3777975882
20
212.7897875600
30
0.0000000000
10
300.3777373345
20
212.7951108270
30
0.0000000000
10
300.3776396980
20
212.8043925933
30
0.0000000000
10
300.3775550077
20
212.8136744851
30
0.0000000000
10
300.3775212448
20
212.8176330100
30
0.0000000000
11
300.3777975882
21
212.7897875600
31
0.0000000000
11
300.3776295992
21
212.8057574983
31
0.0000000000
11
300.3775212448
21
212.8176330100
31
0.0000000000
0
SPLINE
5
415
100
AcDbEntity
8
0
100
AcDbSpline
62
7
6
CONTINUOUS
70
0
71
3
72
8
73
4
74
2
42
0.0000001000
43
0.0000001000
44
0.0000000001
40
0.0000000000
40
0.0000000000
40
0.0000000000
40
0.0000000000
40
1.0000000000
40
1.0000000000
40
1.0000000000
40
1.0000000000
10
300.3775212448
20
212.8176330100
30
0.0000000000
10
300.3774649707
20
212.8242308451
30
0.0000000000
10
300.3774152400
20
212.8308287360
30
0.0000000000
10
300.3773720562
20
212.8374266697
30
0.0000000000
11
300.3775212448
21
212.8176330100
31
0.0000000000
11
300.3773720562
21
212.8374266697
31
0.0000000000
0
SPLINE
5
416
100
AcDbEntity
8
0
100
AcDbSpline
62
7
6
CONTINUOUS
70
0
71
3
72
9
73
5
74
3
42
0.0000001000
43
0.0000001000
44
0.0000000001
40
0.0000000000
40
0.0000000000
40
0.0000000000
40
0.0000000000
40
0.1402861261
40
1.0000000000
40
1.0000000000
40
1.0000000000
40
1.0000000000
10
300.3773720562
20
212.8374266697
30
0.0000000000
10
300.3773617689
20
212.8389984334
30
0.0000000000
10
300.3772910867
20
212.8502024366
30
0.0000000000
10
300.3772392853
20
212.8614065545
30
0.0000000000
10
300.3772088019
20
212.8710389336
30
0.0000000000
11
300.3773720562
21
212.8374266697
31
0.0000000000
11
300.3773423090
21
212.8421419681
31
0.0000000000
11
300.3772088019
21
212.8710389336
31
0.0000000000
0
SPLINE
5
417
100
AcDbEntity
8
0
100
AcDbSpline
62
7
6
CONTINUOUS
70
0
71
3
72
9
73
5
74
3
42
0.0000001000
43
0.0000001000
44
0.0000000001
40
0.0000000000
40
0.0000000000
40
0.0000000000
40
0.0000000000
40
0.4046280808
40
1.0000000000
40
1.0000000000
40
1.0000000000
40
1.0000000000
10
300.3772088019
20
212.8710389336
30
0.0000000000
10
300.3772030858
20
212.8728451434
30
0.0000000000
10
300.3771901801
20
212.8773090239
30
0.0000000000
10
300.3771802958
20
212.8817729120
30
0.0000000000
10
300.3771754871
20
212.8844305875
30
0.0000000000
11
300.3772088019
21
212.8710389336
31
0.0000000000
11
300.3771931365
21
212.8764575674
31
0.0000000000
11
300.3771754871
21
212.8844305875
31
0.0000000000
0
SPLINE
5
418
100
AcDbEntity
8
0
100
AcDbSpline
62
7
6
CONTINUOUS
70
0
71
3
72
8
73
4
74
2
42
0.0000001000
43
0.0000001000
44
0.0000000001
40
0.0000000000
40
0.0000000000
40
0.0000000000
40
0.0000000000
40
1.0000000000
40
1.0000000000
40
1.0000000000
40
1.0000000000
10
300.3771754871
20
212.8844305875
30
0.0000000000
10
300.3771698056
20
212.8875705944
30
0.0000000000
10
300.3771656261
20
212.8907106039
30
0.0000000000
10
300.3771629569
20
212.8938506146
30
0.0000000000
11
300.3771754871
21
212.8844305875
31
0.0000000000
11
300.3771629569
21
212.8938506146
31
0.0000000000
0
SPLINE
5
419
100
AcDbEntity
8
0
100
AcDbSpline
62
7
6
CONTINUOUS
70
0
71
3
72
17
73
13
74
11
42
0.0000001000
43
0.0000001000
44
0.0000000001
40
0.0000000000
40
0.0000000000
40
0.0000000000
40
0.0000000000
40
0.0438520057
40
0.1619626479
40
0.2788037357
40
0.3942533040
40
0.5081909993
40
0.6204989452
40
0.7311087775
40
0.8401126015
40
0.9472380862
40
1.0000000000
40
1.0000000000
40
1.0000000000
40
1.0000000000
10
300.4057888896
20
212.1469375723
30
0.0000000000
10
300.4052864553
20
212.1535614704
30
0.0000000000
10
300.4034551544
20
212.1780279725
30
0.0000000000
10
300.4004578070
20
212.2201562461
30
0.0000000000
10
300.3969735585
20
212.2731225338
30
0.0000000000
10
300.3938071935
20
212.3254754862
30
0.0000000000
10
300.3909517332
20
212.3771585708
30
0.0000000000
10
300.3883987862
20
212.4281234182
30
0.0000000000
10
300.3861377303
20
212.4783538866
30
0.0000000000
10
300.3841588464
20
212.5278105703
30
0.0000000000
10
300.3827302967
20
212.5685186409
30
0.0000000000
10
300.3819688409
20
212.5927272401
30
0.0000000000
10
300.3817271469
20
212.6007162272
30
0.0000000000
11
300.4057888896
21
212.1469375723
31
0.0000000000
11
300.4043013955
21
212.1668107559
31
0.0000000000
11
300.4004920823
21
212.2203513606
31
0.0000000000
11
300.3970066375
21
212.2733358352
31
0.0000000000
11
300.3938391865
21
212.3257067458
31
0.0000000000
11
300.3909827540
21
212.3774074285
31
0.0000000000
11
300.3884293002
21
212.4283823977
31
0.0000000000
11
300.3861688815
21
212.4785987160
31
0.0000000000
11
300.3841883569
21
212.5280964183
31
0.0000000000
11
300.3824809741
21
212.5767501583
31
0.0000000000
11
300.3817271469
21
212.6007162272
31
0.0000000000
0
SPLINE
5
41A
100
AcDbEntity
8
0
100
AcDbSpline
62
7
6
CONTINUOUS
70
0
71
3
72
9
73
5
74
3
42
0.0000001000
43
0.0000001000
44
0.0000000001
40
0.0000000000
40
0.0000000000
40
0.0000000000
40
0.0000000000
40
0.3373369700
40
1.0000000000
40
1.0000000000
40
1.0000000000
40
1.0000000000
10
300.3817271469
20
212.6007162272
30
0.0000000000
10
300.3814880940
20
212.6086179143
30
0.0000000000
10
300.3808072344
20
212.6320424758
30
0.0000000000
10
300.3802087549
20
212.6554693331
30
0.0000000000
10
300.3798483457
20
212.6709942850
30
0.0000000000
11
300.3817271469
21
212.6007162272
31
0.0000000000
11
300.3810381103
21
212.6244221167
31
0.0000000000
11
300.3798483457
21
212.6709942850
31
0.0000000000
0
SPLINE
5
41B
100
AcDbEntity
8
0
100
AcDbSpline
62
7
6
CONTINUOUS
70
0
71
3
72
13
73
9
74
7
42
0.0000001000
43
0.0000001000
44
0.0000000001
40
0.0000000000
40
0.0000000000
40
0.0000000000
40
0.0000000000
40
0.2023406319
40
0.3991581345
40
0.5906245034
40
0.7756090619
40
0.9380175526
40
1.0000000000
40
1.0000000000
40
1.0000000000
40
1.0000000000
10
300.3798483457
20
212.6709942850
30
0.0000000000
10
300.3794971826
20
212.6861209478
30
0.0000000000
10
300.3788722010
20
212.7159629454
30
0.0000000000
10
300.3781452563
20
212.7601231091
30
0.0000000000
10
300.3776264949
20
212.8029882443
30
0.0000000000
10
300.3773092443
20
212.8432822006
30
0.0000000000
10
300.3771877589
20
212.8738945072
30
0.0000000000
10
300.3771638397
20
212.8906741131
30
0.0000000000
10
300.3771605193
20
212.8953090663
30
0.0000000000
11
300.3798483457
21
212.6709942850
31
0.0000000000
11
300.3788979083
21
212.7163765086
31
0.0000000000
11
300.3781711823
21
212.7605236689
31
0.0000000000
11
300.3776514189
21
212.8034732164
31
0.0000000000
11
300.3773247143
21
212.8449705230
31
0.0000000000
11
300.3771803097
21
212.8814042173
31
0.0000000000
11
300.3771605193
21
212.8953090663
31
0.0000000000
0
SPLINE
5
41C
100
AcDbEntity
8
0
100
AcDbSpline
62
7
6
CONTINUOUS
70
0
71
3
72
8
73
4
74
2
42
0.0000001000
43
0.0000001000
44
0.0000000001
40
0.0000000000
40
0.0000000000
40
0.0000000000
40
0.0000000000
40
1.0000000000
40
1.0000000000
40
1.0000000000
40
1.0000000000
10
300.3771605193
20
212.8953090663
30
0.0000000000
10
300.3771595000
20
212.8967318295
30
0.0000000000
10
300.3771587905
20
212.8981545929
30
0.0000000000
10
300.3771583915
20
212.8995773564
30
0.0000000000
11
300.3771605193
21
212.8953090663
31
0.0000000000
11
300.3771583915
21
212.8995773564
31
0.0000000000
0
SPLINE
5
41D
100
AcDbEntity
8
0
100
AcDbSpline
62
7
6
CONTINUOUS
70
0
71
3
72
8
73
4
74
2
42
0.0000001000
43
0.0000001000
44
0.0000000001
40
0.0000000000
40
0.0000000000
40
0.0000000000
40
0.0000000000
40
1.0000000000
40
1.0000000000
40
1.0000000000
40
1.0000000000
10
290.3368769408
20
212.0069896274
30
0.0000000000
10
290.3400505090
20
212.0422317608
30
0.0000000000
10
290.3430368936
20
212.0774915974
30
0.0000000000
10
290.3458359120
20
212.1127667471
30
0.0000000000
11
290.3368769408
21
212.0069896274
31
0.0000000000
11
290.3458359120
21
212.1127667471
31
0.0000000000
0
SPLINE
5
41E
100
AcDbEntity
8
0
100
AcDbSpline
62
7
6
CONTINUOUS
70
0
71
3
72
8
73
4
74
2
42
0.0000001000
43
0.0000001000
44
0.0000000001
40
0.0000000000
40
0.0000000000
40
0.0000000000
40
0.0000000000
40
1.0000000000
40
1.0000000000
40
1.0000000000
40
1.0000000000
10
290.3458359120
20
212.1127667471
30
0.0000000000
10
290.3468609487
20
212.1256849629
30
0.0000000000
10
290.3478608574
20
212.1386052324
30
0.0000000000
10
290.3488356291
20
212.1515274382
30
0.0000000000
11
290.3458359120
21
212.1127667471
31
0.0000000000
11
290.3488356291
21
212.1515274382
31
0.0000000000
0
SPLINE
5
41F
100
AcDbEntity
8
0
100
AcDbSpline
62
7
6
CONTINUOUS
70
0
71
3
72
8
73
4
74
2
42
0.0000001000
43
0.0000001000
44
0.0000000001
40
0.0000000000
40
0.0000000000
40
0.0000000000
40
0.0000000000
40
1.0000000000
40
1.0000000000
40
1.0000000000
40
1.0000000000
10
290.3493718119
20
212.1586695531
30
0.0000000000
10
290.3516245563
20
212.1888215362
30
0.0000000000
10
290.3537404480
20
212.2189839425
30
0.0000000000
10
290.3557193733
20
212.2491552810
30
0.0000000000
11
290.3493718119
21
212.1586695531
31
0.0000000000
11
290.3557193733
21
212.2491552810
31
0.0000000000
0
SPLINE
5
420
100
AcDbEntity
8
0
100
AcDbSpline
62
7
6
CONTINUOUS
70
0
71
3
72
8
73
4
74
2
42
0.0000001000
43
0.0000001000
44
0.0000000001
40
0.0000000000
40
0.0000000000
40
0.0000000000
40
0.0000000000
40
1.0000000000
40
1.0000000000
40
1.0000000000
40
1.0000000000
10
290.3557193733
20
212.2491552810
30
0.0000000000
10
290.3569438137
20
212.2678234984
30
0.0000000000
10
290.3581158179
20
212.2864951355
30
0.0000000000
10
290.3592353590
20
212.3051698389
30
0.0000000000
11
290.3557193733
21
212.2491552810
31
0.0000000000
11
290.3592353590
21
212.3051698389
31
0.0000000000
0
SPLINE
5
421
100
AcDbEntity
8
0
100
AcDbSpline
62
7
6
CONTINUOUS
70
0
71
3
72
8
73
4
74
2
42
0.0000001000
43
0.0000001000
44
0.0000000001
40
0.0000000000
40
0.0000000000
40
0.0000000000
40
0.0000000000
40
1.0000000000
40
1.0000000000
40
1.0000000000
40
1.0000000000
10
290.3592353590
20
212.3051698389
30
0.0000000000
10
290.3615164667
20
212.3432202625
30
0.0000000000
10
290.3635797703
20
212.3812834165
30
0.0000000000
10
290.3654251685
20
212.4193570554
30
0.0000000000
11
290.3592353590
21
212.3051698389
31
0.0000000000
11
290.3654251685
21
212.4193570554
31
0.0000000000
0
SPLINE
5
422
100
AcDbEntity
8
0
100
AcDbSpline
62
7
6
CONTINUOUS
70
0
71
3
72
8
73
4
74
2
42
0.0000001000
43
0.0000001000
44
0.0000000001
40
0.0000000000
40
0.0000000000
40
0.0000000000
40
0.0000000000
40
1.0000000000
40
1.0000000000
40
1.0000000000
40
1.0000000000
10
290.3654251685
20
212.4193570554
30
0.0000000000
10
290.3659265692
20
212.4297017891
30
0.0000000000
10
290.3664118836
20
212.4400472969
30
0.0000000000
10
290.3668811096
20
212.4503935336
30
0.0000000000
11
290.3654251685
21
212.4193570554
31
0.0000000000
11
290.3668811096
21
212.4503935336
31
0.0000000000
0
SPLINE
5
423
100
AcDbEntity
8
0
100
AcDbSpline
62
7
6
CONTINUOUS
70
0
71
3
72
8
73
4
74
2
42
0.0000001000
43
0.0000001000
44
0.0000000001
40
0.0000000000
40
0.0000000000
40
0.0000000000
40
0.0000000000
40
1.0000000000
40
1.0000000000
40
1.0000000000
40
1.0000000000
10
290.3668811096
20
212.4503935336
30
0.0000000000
10
290.3670103747
20
212.4532437737
30
0.0000000000
10
290.3671384188
20
212.4560940692
30
0.0000000000
10
290.3672652418
20
212.4589444190
30
0.0000000000
11
290.3668811096
21
212.4503935336
31
0.0000000000
11
290.3672652418
21
212.4589444190
31
0.0000000000
0
SPLINE
5
424
100
AcDbEntity
8
0
100
AcDbSpline
62
7
6
CONTINUOUS
70
0
71
3
72
8
73
4
74
2
42
0.0000001000
43
0.0000001000
44
0.0000000001
40
0.0000000000
40
0.0000000000
40
0.0000000000
40
0.0000000000
40
1.0000000000
40
1.0000000000
40
1.0000000000
40
1.0000000000
10
290.3721409774
20
212.5870235929
30
0.0000000000
10
290.3722873980
20
212.5916505029
30
0.0000000000
10
290.3724306027
20
212.5962775190
30
0.0000000000
10
290.3725705913
20
212.6009046370
30
0.0000000000
11
290.3721409774
21
212.5870235929
31
0.0000000000
11
290.3725705913
21
212.6009046370
31
0.0000000000
0
SPLINE
5
425
100
AcDbEntity
8
0
100
AcDbSpline
62
7
6
CONTINUOUS
70
0
71
3
72
8
73
4
74
2
42
0.0000001000
43
0.0000001000
44
0.0000000001
40
0.0000000000
40
0.0000000000
40
0.0000000000
40
0.0000000000
40
1.0000000000
40
1.0000000000
40
1.0000000000
40
1.0000000000
10
290.3725705913
20
212.6009046370
30
0.0000000000
10
290.3740597557
20
212.6501267839
30
0.0000000000
10
290.3751849768
20
212.6993605067
30
0.0000000000
10
290.3759461653
20
212.7485993477
30
0.0000000000
11
290.3725705913
21
212.6009046370
31
0.0000000000
11
290.3759461653
21
212.7485993477
31
0.0000000000
0
SPLINE
5
426
100
AcDbEntity
8
0
100
AcDbSpline
62
7
6
CONTINUOUS
70
0
71
3
72
8
73
4
74
2
42
0.0000001000
43
0.0000001000
44
0.0000000001
40
0.0000000000
40
0.0000000000
40
0.0000000000
40
0.0000000000
40
1.0000000000
40
1.0000000000
40
1.0000000000
40
1.0000000000
10
290.3759461653
20
212.7485993477
30
0.0000000000
10
290.3759948612
20
212.7517493299
30
0.0000000000
10
290.3760420673
20
212.7548993330
30
0.0000000000
10
290.3760877835
20
212.7580493554
30
0.0000000000
11
290.3759461653
21
212.7485993477
31
0.0000000000
11
290.3760877835
21
212.7580493554
31
0.0000000000
0
SPLINE
5
427
100
AcDbEntity
8
0
100
AcDbSpline
62
7
6
CONTINUOUS
70
0
71
3
72
8
73
4
74
2
42
0.0000001000
43
0.0000001000
44
0.0000000001
40
0.0000000000
40
0.0000000000
40
0.0000000000
40
0.0000000000
40
1.0000000000
40
1.0000000000
40
1.0000000000
40
1.0000000000
10
290.3762863122
20
212.7724433812
30
0.0000000000
10
290.3765683968
20
212.7940228070
30
0.0000000000
10
290.3767805622
20
212.8156030153
30
0.0000000000
10
290.3769228012
20
212.8371834626
30
0.0000000000
11
290.3762863122
21
212.7724433812
31
0.0000000000
11
290.3769228012
21
212.8371834626
31
0.0000000000
0
SPLINE
5
428
100
AcDbEntity
8
0
100
AcDbSpline
62
7
6
CONTINUOUS
70
0
71
3
72
8
73
4
74
2
42
0.0000001000
43
0.0000001000
44
0.0000000001
40
0.0000000000
40
0.0000000000
40
0.0000000000
40
0.0000000000
40
1.0000000000
40
1.0000000000
40
1.0000000000
40
1.0000000000
10
290.3769228012
20
212.8371834626
30
0.0000000000
10
290.3770671113
20
212.8590781522
30
0.0000000000
10
290.3771394437
20
212.8809730878
30
0.0000000000
10
290.3771397903
20
212.9028677014
30
0.0000000000
11
290.3769228012
21
212.8371834626
31
0.0000000000
11
290.3771397903
21
212.9028677014
31
0.0000000000
0
SPLINE
5
429
100
AcDbEntity
8
0
100
AcDbSpline
62
7
6
CONTINUOUS
70
0
71
3
72
11
73
7
74
5
42
0.0000001000
43
0.0000001000
44
0.0000000001
40
0.0000000000
40
0.0000000000
40
0.0000000000
40
0.0000000000
40
0.1200853619
40
0.5543890315
40
0.9784666092
40
1.0000000000
40
1.0000000000
40
1.0000000000
40
1.0000000000
10
300.3854834792
20
212.4950514305
30
0.0000000000
10
300.3853107616
20
212.4992801949
30
0.0000000000
10
300.3845257881
20
212.5188033187
30
0.0000000000
10
300.3832413854
20
212.5532645716
30
0.0000000000
10
300.3822270523
20
212.5842597778
30
0.0000000000
10
300.3817503659
20
212.5999576594
30
0.0000000000
10
300.3817274173
20
212.6007162354
30
0.0000000000
11
300.3854834792
21
212.4950514305
31
0.0000000000
11
300.3849733837
21
212.5077380492
31
0.0000000000
11
300.3832630994
21
212.5536259595
31
0.0000000000
11
300.3817965225
21
212.5984405153
31
0.0000000000
11
300.3817274173
21
212.6007162354
31
0.0000000000
0
SPLINE
5
42A
100
AcDbEntity
8
0
100
AcDbSpline
62
7
6
CONTINUOUS
70
0
71
3
72
11
73
7
74
5
42
0.0000001000
43
0.0000001000
44
0.0000000001
40
0.0000000000
40
0.0000000000
40
0.0000000000
40
0.0000000000
40
0.0624047573
40
0.4375234052
40
0.8126314776
40
1.0000000000
40
1.0000000000
40
1.0000000000
40
1.0000000000
10
122.0867740815
20
119.1891385198
30
0.0000000000
10
122.0717359701
20
119.1908009495
30
0.0000000000
10
121.9665732798
20
119.2048480782
30
0.0000000000
10
121.7764448791
20
119.2620907661
30
0.0000000000
10
121.5828707795
20
119.3846154659
30
0.0000000000
10
121.4846644815
20
119.4797674710
30
0.0000000000
10
121.4542626730
20
119.5134895829
30
0.0000000000
11
122.0867740815
21
119.1891385198
31
0.0000000000
11
122.0417937800
21
119.1951493017
31
0.0000000000
11
121.7816019083
21
119.2733899808
31
0.0000000000
11
121.5520808153
21
119.4187767736
31
0.0000000000
11
121.4542626730
21
119.5134895829
31
0.0000000000
0
SPLINE
5
42B
100
AcDbEntity
8
0
100
AcDbSpline
62
7
6
CONTINUOUS
70
0
71
3
72
8
73
4
74
2
42
0.0000001000
43
0.0000001000
44
0.0000000001
40
0.0000000000
40
0.0000000000
40
0.0000000000
40
0.0000000000
40
1.0000000000
40
1.0000000000
40
1.0000000000
40
1.0000000000
10
121.4542626730
20
119.5134895829
30
0.0000000000
10
121.4503524264
20
119.5178268832
30
0.0000000000
10
121.4464804272
20
119.5221976943
30
0.0000000000
10
121.4426473636
20
119.5266012153
30
0.0000000000
11
121.4542626730
21
119.5134895829
31
0.0000000000
11
121.4426473636
21
119.5266012153
31
0.0000000000
0
SPLINE
5
42C
100
AcDbEntity
8
0
100
AcDbSpline
62
7
6
CONTINUOUS
70
0
71
3
72
8
73
4
74
2
42
0.0000001000
43
0.0000001000
44
0.0000000001
40
0.0000000000
40
0.0000000000
40
0.0000000000
40
0.0000000000
40
1.0000000000
40
1.0000000000
40
1.0000000000
40
1.0000000000
10
121.4426473636
20
119.5266012153
30
0.0000000000
10
121.4166213416
20
119.5565005713
30
0.0000000000
10
121.3923903422
20
119.5879079286
30
0.0000000000
10
121.3701697460
20
119.6205725701
30
0.0000000000
11
121.4426473636
21
119.5266012153
31
0.0000000000
11
121.3701697460
21
119.6205725701
31
0.0000000000
0
SPLINE
5
42D
100
AcDbEntity
8
0
100
AcDbSpline
62
7
6
CONTINUOUS
70
0
71
3
72
8
73
4
74
2
42
0.0000001000
43
0.0000001000
44
0.0000000001
40
0.0000000000
40
0.0000000000
40
0.0000000000
40
0.0000000000
40
1.0000000000
40
1.0000000000
40
1.0000000000
40
1.0000000000
10
100.6674985725
20
119.6206108810
30
0.0000000000
10
100.6420057210
20
119.5831322248
30
0.0000000000
10
100.6138663089
20
119.5473085196
30
0.0000000000
10
100.5834056220
20
119.5135184499
30
0.0000000000
11
100.6674985725
21
119.6206108810
31
0.0000000000
11
100.5834056220
21
119.5135184499
31
0.0000000000
0
SPLINE
5
42E
100
AcDbEntity
8
0
100
AcDbSpline
62
7
6
CONTINUOUS
70
0
71
3
72
11
73
7
74
5
42
0.0000001000
43
0.0000001000
44
0.0000000001
40
0.0000000000
40
0.0000000000
40
0.0000000000
40
0.0000000000
40
0.1873684106
40
0.5624744261
40
0.9375884591
40
1.0000000000
40
1.0000000000
40
1.0000000000
40
1.0000000000
10
100.5834056220
20
119.5135184499
30
0.0000000000
10
100.5530035680
20
119.4797934219
30
0.0000000000
10
100.4547959037
20
119.3846333191
30
0.0000000000
10
100.2612161524
20
119.2620981065
30
0.0000000000
10
100.0710785459
20
119.2048497547
30
0.0000000000
10
99.9659099434
20
119.1908013178
30
0.0000000000
10
99.9508694200
20
119.1891386029
30
0.0000000000
11
100.5834056220
21
119.5135184499
31
0.0000000000
11
100.4855858296
21
119.4187973098
31
0.0000000000
11
100.2560578980
21
119.2733979385
31
0.0000000000
11
99.9958569112
21
119.1951505682
31
0.0000000000
11
99.9508694200
21
119.1891386029
31
0.0000000000
0
SPLINE
5
42F
100
AcDbEntity
8
0
100
AcDbSpline
62
7
6
CONTINUOUS
70
0
71
3
72
11
73
7
74
5
42
0.0000001000
43
0.0000001000
44
0.0000000001
40
0.0000000000
40
0.0000000000
40
0.0000000000
40
0.0000000000
40
0.0624047573
40
0.4375234052
40
0.8126314776
40
1.0000000000
40
1.0000000000
40
1.0000000000
40
1.0000000000
10
99.9508681370
20
106.0377797470
30
0.0000000000
10
99.9659062483
20
106.0361173174
30
0.0000000000
10
100.0710689386
20
106.0220701887
30
0.0000000000
10
100.2611973393
20
105.9648275008
30
0.0000000000
10
100.4547714389
20
105.8423028010
30
0.0000000000
10
100.5529777369
20
105.7471507959
30
0.0000000000
10
100.5833795454
20
105.7134286840
30
0.0000000000
11
99.9508681370
21
106.0377797470
31
0.0000000000
11
99.9958484384
21
106.0317689651
31
0.0000000000
11
100.2560403102
21
105.9535282861
31
0.0000000000
11
100.4855614032
21
105.8081414933
31
0.0000000000
11
100.5833795454
21
105.7134286840
31
0.0000000000
0
SPLINE
5
430
100
AcDbEntity
8
0
100
AcDbSpline
62
7
6
CONTINUOUS
70
0
71
3
72
8
73
4
74
2
42
0.0000001000
43
0.0000001000
44
0.0000000001
40
0.0000000000
40
0.0000000000
40
0.0000000000
40
0.0000000000
40
1.0000000000
40
1.0000000000
40
1.0000000000
40
1.0000000000
10
100.5833795454
20
105.7134286840
30
0.0000000000
10
100.5872897921
20
105.7090913836
30
0.0000000000
10
100.5911617912
20
105.7047205725
30
0.0000000000
10
100.5949948548
20
105.7003170516
30
0.0000000000
11
100.5833795454
21
105.7134286840
31
0.0000000000
11
100.5949948548
21
105.7003170516
31
0.0000000000
0
SPLINE
5
431
100
AcDbEntity
8
0
100
AcDbSpline
62
7
6
CONTINUOUS
70
0
71
3
72
8
73
4
74
2
42
0.0000001000
43
0.0000001000
44
0.0000000001
40
0.0000000000
40
0.0000000000
40
0.0000000000
40
0.0000000000
40
1.0000000000
40
1.0000000000
40
1.0000000000
40
1.0000000000
10
100.5949948548
20
105.7003170516
30
0.0000000000
10
100.6210208768
20
105.6704176956
30
0.0000000000
10
100.6452518762
20
105.6390103382
30
0.0000000000
10
100.6674724724
20
105.6063456968
30
0.0000000000
11
100.5949948548
21
105.7003170516
31
0.0000000000
11
100.6674724724
21
105.6063456968
31
0.0000000000
0
SPLINE
5
432
100
AcDbEntity
8
0
100
AcDbSpline
62
7
6
CONTINUOUS
70
0
71
3
72
8
73
4
74
2
42
0.0000001000
43
0.0000001000
44
0.0000000001
40
0.0000000000
40
0.0000000000
40
0.0000000000
40
0.0000000000
40
1.0000000000
40
1.0000000000
40
1.0000000000
40
1.0000000000
10
121.3701436460
20
105.6063073859
30
0.0000000000
10
121.3956364974
20
105.6437860421
30
0.0000000000
10
121.4237759095
20
105.6796097472
30
0.0000000000
10
121.4542365965
20
105.7133998169
30
0.0000000000
11
121.3701436460
21
105.6063073859
31
0.0000000000
11
121.4542365965
21
105.7133998169
31
0.0000000000
0
SPLINE
5
433
100
AcDbEntity
8
0
100
AcDbSpline
62
7
6
CONTINUOUS
70
0
71
3
72
11
73
7
74
5
42
0.0000001000
43
0.0000001000
44
0.0000000001
40
0.0000000000
40
0.0000000000
40
0.0000000000
40
0.0000000000
40
0.1873684106
40
0.5624744261
40
0.9375884591
40
1.0000000000
40
1.0000000000
40
1.0000000000
40
1.0000000000
10
121.4542365965
20
105.7133998169
30
0.0000000000
10
121.4846386504
20
105.7471248450
30
0.0000000000
10
121.5828463148
20
105.8422849478
30
0.0000000000
10
121.7764260660
20
105.9648201603
30
0.0000000000
10
121.9665636726
20
106.0220685121
30
0.0000000000
10
122.0717322751
20
106.0361169491
30
0.0000000000
10
122.0867727984
20
106.0377796639
30
0.0000000000
11
121.4542365965
21
105.7133998169
31
0.0000000000
11
121.5520563888
21
105.8081209571
31
0.0000000000
11
121.7815843204
21
105.9535203284
31
0.0000000000
11
122.0417853072
21
106.0317676986
31
0.0000000000
11
122.0867727984
21
106.0377796639
31
0.0000000000
0
SPLINE
5
434
100
AcDbEntity
8
0
100
AcDbSpline
62
7
6
CONTINUOUS
70
0
71
3
72
16
73
12
74
10
42
0.0000001000
43
0.0000001000
44
0.0000000001
40
0.0000000000
40
0.0000000000
40
0.0000000000
40
0.0000000000
40
0.1276059126
40
0.2778766575
40
0.4196329871
40
0.5514673117
40
0.6722474419
40
0.7812454752
40
0.8780360557
40
0.9624510748
40
1.0000000000
40
1.0000000000
40
1.0000000000
40
1.0000000000
10
95.9592980239
20
106.2087626560
30
0.0000000000
10
96.1214453183
20
106.2087664536
30
0.0000000000
10
96.4745417835
20
106.2072132122
30
0.0000000000
10
97.0077191251
20
106.1997030865
30
0.0000000000
10
97.5461628451
20
106.1865726969
30
0.0000000000
10
98.0469883108
20
106.1691048960
30
0.0000000000
10
98.5060157645
20
106.1481634703
30
0.0000000000
10
98.9203180544
20
106.1245595479
30
0.0000000000
10
99.2882101395
20
106.0991227957
30
0.0000000000
10
99.5652349625
20
106.0762374878
30
0.0000000000
10
99.7195445609
20
106.0617034285
30
0.0000000000
10
99.7670288130
20
106.0570229071
30
0.0000000000
11
95.9592980239
21
106.2087626560
31
0.0000000000
11
96.4457349682
21
106.2066187122
31
0.0000000000
11
97.0185180055
21
106.1985391926
31
0.0000000000
11
97.5587381112
21
106.1852873783
31
0.0000000000
11
98.0609889260
21
106.1676783063
31
0.0000000000
11
98.5209250010
21
106.1465690208
31
0.0000000000
11
98.9357502621
21
106.1227897083
31
0.0000000000
11
99.3038299046
21
106.0971609622
31
0.0000000000
11
99.6245167755
21
106.0704843973
31
0.0000000000
11
99.7670288130
21
106.0570229071
31
0.0000000000
0
SPLINE
5
435
100
AcDbEntity
8
0
100
AcDbSpline
62
7
6
CONTINUOUS
70
0
71
3
72
8
73
4
74
2
42
0.0000001000
43
0.0000001000
44
0.0000000001
40
0.0000000000
40
0.0000000000
40
0.0000000000
40
0.0000000000
40
1.0000000000
40
1.0000000000
40
1.0000000000
40
1.0000000000
10
99.7670288130
20
106.0570229071
30
0.0000000000
10
99.8107298461
20
106.0527152976
30
0.0000000000
10
99.8544114835
20
106.0482332614
30
0.0000000000
10
99.8980663847
20
106.0435473887
30
0.0000000000
11
99.7670288130
21
106.0570229071
31
0.0000000000
11
99.8980663847
21
106.0435473887
31
0.0000000000
0
SPLINE
5
436
100
AcDbEntity
8
0
100
AcDbSpline
62
7
6
CONTINUOUS
70
0
71
3
72
8
73
4
74
2
42
0.0000001000
43
0.0000001000
44
0.0000000001
40
0.0000000000
40
0.0000000000
40
0.0000000000
40
0.0000000000
40
1.0000000000
40
1.0000000000
40
1.0000000000
40
1.0000000000
10
99.8980663847
20
106.0435473887
30
0.0000000000
10
99.9157067188
20
106.0416538931
30
0.0000000000
10
99.9333426873
20
106.0397271140
30
0.0000000000
10
99.9509749470
20
106.0377655834
30
0.0000000000
11
99.8980663847
21
106.0435473887
31
0.0000000000
11
99.9509749470
21
106.0377655834
31
0.0000000000
0
SPLINE
5
437
100
AcDbEntity
8
0
100
AcDbSpline
62
7
6
CONTINUOUS
70
0
71
3
72
9
73
5
74
3
42
0.0000001000
43
0.0000001000
44
0.0000000001
40
0.0000000000
40
0.0000000000
40
0.0000000000
40
0.0000000000
40
0.2637408053
40
1.0000000000
40
1.0000000000
40
1.0000000000
40
1.0000000000
10
95.0160347654
20
106.2322594943
30
0.0000000000
10
95.0346719658
20
106.2281473950
30
0.0000000000
10
95.1058017453
20
106.2145815703
30
0.0000000000
10
95.1783035357
20
106.2088208867
30
0.0000000000
10
95.2316121651
20
106.2088103298
30
0.0000000000
11
95.0160347654
21
106.2322594943
31
0.0000000000
11
95.0722870525
21
106.2215345914
31
0.0000000000
11
95.2316121651
21
106.2088103298
31
0.0000000000
0
SPLINE
5
438
100
AcDbEntity
8
0
100
AcDbSpline
62
7
6
CONTINUOUS
70
0
71
3
72
8
73
4
74
2
42
0.0000001000
43
0.0000001000
44
0.0000000001
40
0.0000000000
40
0.0000000000
40
0.0000000000
40
0.0000000000
40
1.0000000000
40
1.0000000000
40
1.0000000000
40
1.0000000000
10
95.2316121554
20
119.0181575050
30
0.0000000000
10
95.1594253226
20
119.0181575050
30
0.0000000000
10
95.0869563028
20
119.0102584592
30
0.0000000000
10
95.0162201986
20
118.9946772674
30
0.0000000000
11
95.2316121554
21
119.0181575050
31
0.0000000000
11
95.0162201986
21
118.9946772674
31
0.0000000000
0
SPLINE
5
439
100
AcDbEntity
8
0
100
AcDbSpline
62
7
6
CONTINUOUS
70
0
71
3
72
8
73
4
74
2
42
0.0000001000
43
0.0000001000
44
0.0000000001
40
0.0000000000
40
0.0000000000
40
0.0000000000
40
0.0000000000
40
1.0000000000
40
1.0000000000
40
1.0000000000
40
1.0000000000
10
99.9509747219
20
119.1891562246
30
0.0000000000
10
99.9403670618
20
119.1879726137
30
0.0000000000
10
99.9297593845
20
119.1868019900
30
0.0000000000
10
99.9191551117
20
119.1856448023
30
0.0000000000
11
99.9509747219
21
119.1891562246
31
0.0000000000
11
99.9191551117
21
119.1856448023
31
0.0000000000
0
SPLINE
5
43A
100
AcDbEntity
8
0
100
AcDbSpline
62
7
6
CONTINUOUS
70
0
71
3
72
8
73
4
74
2
42
0.0000001000
43
0.0000001000
44
0.0000000001
40
0.0000000000
40
0.0000000000
40
0.0000000000
40
0.0000000000
40
1.0000000000
40
1.0000000000
40
1.0000000000
40
1.0000000000
10
99.9191551117
20
119.1856448023
30
0.0000000000
10
99.8754684516
20
119.1808775102
30
0.0000000000
10
99.8318395742
20
119.1763382556
30
0.0000000000
10
99.7882250995
20
119.1719849567
30
0.0000000000
11
99.9191551117
21
119.1856448023
31
0.0000000000
11
99.7882250995
21
119.1719849567
31
0.0000000000
0
SPLINE
5
43B
100
AcDbEntity
8
0
100
AcDbSpline
62
7
6
CONTINUOUS
70
0
71
3
72
8
73
4
74
2
42
0.0000001000
43
0.0000001000
44
0.0000000001
40
0.0000000000
40
0.0000000000
40
0.0000000000
40
0.0000000000
40
1.0000000000
40
1.0000000000
40
1.0000000000
40
1.0000000000
10
99.7882250995
20
119.1719849567
30
0.0000000000
10
99.7785443764
20
119.1710186930
30
0.0000000000
10
99.7688643629
20
119.1700615908
30
0.0000000000
10
99.7591845846
20
119.1691131898
30
0.0000000000
11
99.7882250995
21
119.1719849567
31
0.0000000000
11
99.7591845846
21
119.1691131898
31
0.0000000000
0
SPLINE
5
43C
100
AcDbEntity
8
0
100
AcDbSpline
62
7
6
CONTINUOUS
70
0
71
3
72
16
73
12
74
10
42
0.0000001000
43
0.0000001000
44
0.0000000001
40
0.0000000000
40
0.0000000000
40
0.0000000000
40
0.0000000000
40
0.0299855132
40
0.1146511040
40
0.2119747695
40
0.3218327035
40
0.4437978569
40
0.5771288131
40
0.7206603477
40
0.8729323029
40
1.0000000000
40
1.0000000000
40
1.0000000000
40
1.0000000000
10
99.7591845846
20
119.1691131898
30
0.0000000000
10
99.7213644284
20
119.1654076636
30
0.0000000000
10
99.5767709054
20
119.1517472837
30
0.0000000000
10
99.3087688301
20
119.1293395081
30
0.0000000000
10
98.9396187460
20
119.1035650869
30
0.0000000000
10
98.5228942706
20
119.0796057285
30
0.0000000000
10
98.0603310294
20
119.0583336376
30
0.0000000000
10
97.5548828131
20
119.0405844284
30
0.0000000000
10
97.0108561949
20
119.0272543015
30
0.0000000000
10
96.4746618918
20
119.0197004259
30
0.0000000000
10
96.1204315920
20
119.0181518868
30
0.0000000000
10
95.9592980537
20
119.0181556319
30
0.0000000000
11
99.7591845846
21
119.1691131898
31
0.0000000000
11
99.6457065939
21
119.1583676555
31
0.0000000000
11
99.3247503864
21
119.1313627437
31
0.0000000000
11
98.9554181412
21
119.1053817012
31
0.0000000000
11
98.5381871568
21
119.0812438520
31
0.0000000000
11
98.0746954065
21
119.0597970302
31
0.0000000000
11
97.5677849965
21
119.0419014031
31
0.0000000000
11
97.0219189332
21
119.0284450872
31
0.0000000000
11
96.4426938153
21
119.0202728010
31
0.0000000000
11
95.9592980537
21
119.0181556319
31
0.0000000000
0
SPLINE
5
43D
100
AcDbEntity
8
0
100
AcDbSpline
62
7
6
CONTINUOUS
70
0
71
3
72
16
73
12
74
10
42
0.0000001000
43
0.0000001000
44
0.0000000001
40
0.0000000000
40
0.0000000000
40
0.0000000000
40
0.0000000000
40
0.1276059126
40
0.2778766575
40
0.4196329871
40
0.5514673117
40
0.6722474419
40
0.7812454752
40
0.8780360557
40
0.9624510748
40
1.0000000000
40
1.0000000000
40
1.0000000000
40
1.0000000000
10
126.0783441946
20
119.0181556109
30
0.0000000000
10
125.9161969001
20
119.0181518133
30
0.0000000000
10
125.5631004349
20
119.0197050546
30
0.0000000000
10
125.0299230933
20
119.0272151803
30
0.0000000000
10
124.4914793733
20
119.0403455699
30
0.0000000000
10
123.9906539077
20
119.0578133708
30
0.0000000000
10
123.5316264539
20
119.0787547965
30
0.0000000000
10
123.1173241640
20
119.1023587189
30
0.0000000000
10
122.7494320789
20
119.1277954711
30
0.0000000000
10
122.4724072559
20
119.1506807791
30
0.0000000000
10
122.3180976575
20
119.1652148384
30
0.0000000000
10
122.2706134054
20
119.1698953597
30
0.0000000000
11
126.0783441946
21
119.0181556109
31
0.0000000000
11
125.5919072502
21
119.0202995547
31
0.0000000000
11
125.0191242129
21
119.0283790743
31
0.0000000000
11
124.4789041073
21
119.0416308886
31
0.0000000000
11
123.9766532924
21
119.0592399606
31
0.0000000000
11
123.5167172174
21
119.0803492460
31
0.0000000000
11
123.1018919563
21
119.1041285585
31
0.0000000000
11
122.7338123138
21
119.1297573047
31
0.0000000000
11
122.4131254429
21
119.1564338695
31
0.0000000000
11
122.2706134054
21
119.1698953597
31
0.0000000000
0
SPLINE
5
43E
100
AcDbEntity
8
0
100
AcDbSpline
62
7
6
CONTINUOUS
70
0
71
3
72
8
73
4
74
2
42
0.0000001000
43
0.0000001000
44
0.0000000001
40
0.0000000000
40
0.0000000000
40
0.0000000000
40
0.0000000000
40
1.0000000000
40
1.0000000000
40
1.0000000000
40
1.0000000000
10
122.2706134054
20
119.1698953597
30
0.0000000000
10
122.2269123723
20
119.1742029693
30
0.0000000000
10
122.1832307349
20
119.1786850054
30
0.0000000000
10
122.1395758337
20
119.1833708782
30
0.0000000000
11
122.2706134054
21
119.1698953597
31
0.0000000000
11
122.1395758337
21
119.1833708782
31
0.0000000000
0
SPLINE
5
43F
100
AcDbEntity
8
0
100
AcDbSpline
62
7
6
CONTINUOUS
70
0
71
3
72
8
73
4
74
2
42
0.0000001000
43
0.0000001000
44
0.0000000001
40
0.0000000000
40
0.0000000000
40
0.0000000000
40
0.0000000000
40
1.0000000000
40
1.0000000000
40
1.0000000000
40
1.0000000000
10
122.1395758337
20
119.1833708782
30
0.0000000000
10
122.1219354996
20
119.1852643737
30
0.0000000000
10
122.1042995311
20
119.1871911528
30
0.0000000000
10
122.0866672714
20
119.1891526834
30
0.0000000000
11
122.1395758337
21
119.1833708782
31
0.0000000000
11
122.0866672714
21
119.1891526834
31
0.0000000000
0
SPLINE
5
440
100
AcDbEntity
8
0
100
AcDbSpline
62
7
6
CONTINUOUS
70
0
71
3
72
9
73
5
74
3
42
0.0000001000
43
0.0000001000
44
0.0000000001
40
0.0000000000
40
0.0000000000
40
0.0000000000
40
0.0000000000
40
0.2637408053
40
1.0000000000
40
1.0000000000
40
1.0000000000
40
1.0000000000
10
127.0216074530
20
118.9946587726
30
0.0000000000
10
127.0029702526
20
118.9987708718
30
0.0000000000
10
126.9318404731
20
119.0123366966
30
0.0000000000
10
126.8593386827
20
119.0180973802
30
0.0000000000
10
126.8060300533
20
119.0181079371
30
0.0000000000
11
127.0216074530
21
118.9946587726
31
0.0000000000
11
126.9653551660
21
119.0053836755
31
0.0000000000
11
126.8060300533
21
119.0181079371
31
0.0000000000
0
SPLINE
5
441
100
AcDbEntity
8
0
100
AcDbSpline
62
7
6
CONTINUOUS
70
0
71
3
72
8
73
4
74
2
42
0.0000001000
43
0.0000001000
44
0.0000000001
40
0.0000000000
40
0.0000000000
40
0.0000000000
40
0.0000000000
40
1.0000000000
40
1.0000000000
40
1.0000000000
40
1.0000000000
10
126.8060300630
20
106.2087607618
30
0.0000000000
10
126.8782168959
20
106.2087607618
30
0.0000000000
10
126.9506859156
20
106.2166598077
30
0.0000000000
10
127.0214220198
20
106.2322409995
30
0.0000000000
11
126.8060300630
21
106.2087607618
31
0.0000000000
11
127.0214220198
21
106.2322409995
31
0.0000000000
0
SPLINE
5
442
100
AcDbEntity
8
0
100
AcDbSpline
62
7
6
CONTINUOUS
70
0
71
3
72
8
73
4
74
2
42
0.0000001000
43
0.0000001000
44
0.0000000001
40
0.0000000000
40
0.0000000000
40
0.0000000000
40
0.0000000000
40
1.0000000000
40
1.0000000000
40
1.0000000000
40
1.0000000000
10
122.0866674966
20
106.0377620423
30
0.0000000000
10
122.0972751566
20
106.0389456531
30
0.0000000000
10
122.1078828340
20
106.0401162768
30
0.0000000000
10
122.1184871068
20
106.0412734646
30
0.0000000000
11
122.0866674966
21
106.0377620423
31
0.0000000000
11
122.1184871068
21
106.0412734646
31
0.0000000000
0
SPLINE
5
443
100
AcDbEntity
8
0
100
AcDbSpline
62
7
6
CONTINUOUS
70
0
71
3
72
8
73
4
74
2
42
0.0000001000
43
0.0000001000
44
0.0000000001
40
0.0000000000
40
0.0000000000
40
0.0000000000
40
0.0000000000
40
1.0000000000
40
1.0000000000
40
1.0000000000
40
1.0000000000
10
122.1184871068
20
106.0412734646
30
0.0000000000
10
122.1621737668
20
106.0460407566
30
0.0000000000
10
122.2058026443
20
106.0505800112
30
0.0000000000
10
122.2494171190
20
106.0549333102
30
0.0000000000
11
122.1184871068
21
106.0412734646
31
0.0000000000
11
122.2494171190
21
106.0549333102
31
0.0000000000
0
SPLINE
5
444
100
AcDbEntity
8
0
100
AcDbSpline
62
7
6
CONTINUOUS
70
0
71
3
72
8
73
4
74
2
42
0.0000001000
43
0.0000001000
44
0.0000000001
40
0.0000000000
40
0.0000000000
40
0.0000000000
40
0.0000000000
40
1.0000000000
40
1.0000000000
40
1.0000000000
40
1.0000000000
10
122.2494171190
20
106.0549333102
30
0.0000000000
10
122.2590978421
20
106.0558995739
30
0.0000000000
10
122.2687778556
20
106.0568566761
30
0.0000000000
10
122.2784576339
20
106.0578050770
30
0.0000000000
11
122.2494171190
21
106.0549333102
31
0.0000000000
11
122.2784576339
21
106.0578050770
31
0.0000000000
0
SPLINE
5
445
100
AcDbEntity
8
0
100
AcDbSpline
62
7
6
CONTINUOUS
70
0
71
3
72
16
73
12
74
10
42
0.0000001000
43
0.0000001000
44
0.0000000001
40
0.0000000000
40
0.0000000000
40
0.0000000000
40
0.0000000000
40
0.0299855132
40
0.1146511040
40
0.2119747695
40
0.3218327035
40
0.4437978569
40
0.5771288131
40
0.7206603477
40
0.8729323029
40
1.0000000000
40
1.0000000000
40
1.0000000000
40
1.0000000000
10
122.2784576339
20
106.0578050770
30
0.0000000000
10
122.3162777900
20
106.0615106032
30
0.0000000000
10
122.4608713130
20
106.0751709831
30
0.0000000000
10
122.7288733883
20
106.0975787587
30
0.0000000000
10
123.0980234724
20
106.1233531800
30
0.0000000000
10
123.5147479478
20
106.1473125384
30
0.0000000000
10
123.9773111890
20
106.1685846293
30
0.0000000000
10
124.4827594053
20
106.1863338385
30
0.0000000000
10
125.0267860235
20
106.1996639653
30
0.0000000000
10
125.5629803267
20
106.2072178410
30
0.0000000000
10
125.9172106265
20
106.2087663800
30
0.0000000000
10
126.0783441647
20
106.2087626350
30
0.0000000000
11
122.2784576339
21
106.0578050770
31
0.0000000000
11
122.3919356246
21
106.0685506113
31
0.0000000000
11
122.7128918321
21
106.0955555232
31
0.0000000000
11
123.0822240772
21
106.1215365656
31
0.0000000000
11
123.4994550616
21
106.1456744149
31
0.0000000000
11
123.9629468119
21
106.1671212367
31
0.0000000000
11
124.4698572219
21
106.1850168638
31
0.0000000000
11
125.0157232853
21
106.1984731796
31
0.0000000000
11
125.5949484031
21
106.2066454659
31
0.0000000000
11
126.0783441647
21
106.2087626350
31
0.0000000000
0
SPLINE
5
446
100
AcDbEntity
8
0
100
AcDbSpline
62
7
6
CONTINUOUS
70
0
71
3
72
8
73
4
74
2
42
0.0000001000
43
0.0000001000
44
0.0000000001
40
0.0000000000
40
0.0000000000
40
0.0000000000
40
0.0000000000
40
1.0000000000
40
1.0000000000
40
1.0000000000
40
1.0000000000
10
133.8510362228
20
117.3013651972
30
0.0000000000
10
133.8380684374
20
117.3151792388
30
0.0000000000
10
133.8247163205
20
117.3286327809
30
0.0000000000
10
133.8110031792
20
117.3417073532
30
0.0000000000
11
133.8510362228
21
117.3013651972
31
0.0000000000
11
133.8110031792
21
117.3417073532
31
0.0000000000
0
SPLINE
5
447
100
AcDbEntity
8
0
100
AcDbSpline
62
7
6
CONTINUOUS
70
0
71
3
72
8
73
4
74
2
42
0.0000001000
43
0.0000001000
44
0.0000000001
40
0.0000000000
40
0.0000000000
40
0.0000000000
40
0.0000000000
40
1.0000000000
40
1.0000000000
40
1.0000000000
40
1.0000000000
10
133.8110031792
20
117.3417073532
30
0.0000000000
10
133.8035146108
20
117.3488472073
30
0.0000000000
10
133.7959183808
20
117.3558740485
30
0.0000000000
10
133.7882182850
20
117.3627848688
30
0.0000000000
11
133.8110031792
21
117.3417073532
31
0.0000000000
11
133.7882182850
21
117.3627848688
31
0.0000000000
0
SPLINE
5
448
100
AcDbEntity
8
0
100
AcDbSpline
62
7
6
CONTINUOUS
70
0
71
3
72
8
73
4
74
2
42
0.0000001000
43
0.0000001000
44
0.0000000001
40
0.0000000000
40
0.0000000000
40
0.0000000000
40
0.0000000000
40
1.0000000000
40
1.0000000000
40
1.0000000000
40
1.0000000000
10
133.7882182850
20
117.3627848688
30
0.0000000000
10
133.7628547685
20
117.3855485730
30
0.0000000000
10
133.7363643148
20
117.4070534593
30
0.0000000000
10
133.7088825721
20
117.4271920288
30
0.0000000000
11
133.7882182850
21
117.3627848688
31
0.0000000000
11
133.7088825721
21
117.4271920288
31
0.0000000000
0
SPLINE
5
449
100
AcDbEntity
8
0
100
AcDbSpline
62
7
6
CONTINUOUS
70
0
71
3
72
10
73
6
74
4
42
0.0000001000
43
0.0000001000
44
0.0000000001
40
0.0000000000
40
0.0000000000
40
0.0000000000
40
0.0000000000
40
0.4298570018
40
0.7987101161
40
1.0000000000
40
1.0000000000
40
1.0000000000
40
1.0000000000
10
133.7088825721
20
117.4271920288
30
0.0000000000
10
133.6522681608
20
117.4686789634
30
0.0000000000
10
133.5392570345
20
117.5349910176
30
0.0000000000
10
133.3856837324
20
117.5913680227
30
0.0000000000
10
133.2954707651
20
117.6139796144
30
0.0000000000
10
133.2634171027
20
117.6210154426
30
0.0000000000
11
133.7088825721
21
117.4271920288
31
0.0000000000
11
133.5278305393
21
117.5338911853
31
0.0000000000
11
133.3588395887
21
117.5968254575
31
0.0000000000
11
133.2634171027
21
117.6210154426
31
0.0000000000
0
SPLINE
5
44A
100
AcDbEntity
8
0
100
AcDbSpline
62
7
6
CONTINUOUS
70
0
71
3
72
10
73
6
74
4
42
0.0000001000
43
0.0000001000
44
0.0000000001
40
0.0000000000
40
0.0000000000
40
0.0000000000
40
0.0000000000
40
0.1955696080
40
0.5686788886
40
1.0000000000
40
1.0000000000
40
1.0000000000
40
1.0000000000
10
88.7741518976
20
117.6209997665
30
0.0000000000
10
88.7483152741
20
117.6153275123
30
0.0000000000
10
88.6735744743
20
117.5970427468
30
0.0000000000
10
88.5450929633
20
117.5538271845
30
0.0000000000
10
88.4476516086
20
117.5044151765
30
0.0000000000
10
88.3979489987
20
117.4737612501
30
0.0000000000
11
88.7741518976
21
117.6209997665
31
0.0000000000
11
88.6971065322
21
117.6020071627
31
0.0000000000
11
88.5538441706
21
117.5531916388
31
0.0000000000
11
88.3979489987
21
117.4737612501
31
0.0000000000
0
SPLINE
5
44B
100
AcDbEntity
8
0
100
AcDbSpline
62
7
6
CONTINUOUS
70
0
71
3
72
8
73
4
74
2
42
0.0000001000
43
0.0000001000
44
0.0000000001
40
0.0000000000
40
0.0000000000
40
0.0000000000
40
0.0000000000
40
1.0000000000
40
1.0000000000
40
1.0000000000
40
1.0000000000
10
88.3979489987
20
117.4737612501
30
0.0000000000
10
88.3445878758
20
117.4408509473
30
0.0000000000
10
88.2941586999
20
117.4031455749
30
0.0000000000
10
88.2475793889
20
117.3611454600
30
0.0000000000
11
88.3979489987
21
117.4737612501
31
0.0000000000
11
88.2475793889
21
117.3611454600
31
0.0000000000
0
SPLINE
5
44C
100
AcDbEntity
8
0
100
AcDbSpline
62
7
6
CONTINUOUS
70
0
71
3
72
8
73
4
74
2
42
0.0000001000
43
0.0000001000
44
0.0000000001
40
0.0000000000
40
0.0000000000
40
0.0000000000
40
0.0000000000
40
1.0000000000
40
1.0000000000
40
1.0000000000
40
1.0000000000
10
88.2475793889
20
117.3611454600
30
0.0000000000
10
88.2455050977
20
117.3592750916
30
0.0000000000
10
88.2434384413
20
117.3573962061
30
0.0000000000
10
88.2413795007
20
117.3555088477
30
0.0000000000
11
88.2475793889
21
117.3611454600
31
0.0000000000
11
88.2413795007
21
117.3555088477
31
0.0000000000
0
SPLINE
5
44D
100
AcDbEntity
8
0
100
AcDbSpline
62
7
6
CONTINUOUS
70
0
71
3
72
8
73
4
74
2
42
0.0000001000
43
0.0000001000
44
0.0000000001
40
0.0000000000
40
0.0000000000
40
0.0000000000
40
0.0000000000
40
1.0000000000
40
1.0000000000
40
1.0000000000
40
1.0000000000
10
88.2413795007
20
117.3555088477
30
0.0000000000
10
88.2369025275
20
117.3514049639
30
0.0000000000
10
88.2324620353
20
117.3472610199
30
0.0000000000
10
88.2280587131
20
117.3430777266
30
0.0000000000
11
88.2413795007
21
117.3555088477
31
0.0000000000
11
88.2280587131
21
117.3430777266
31
0.0000000000
0
SPLINE
5
44E
100
AcDbEntity
8
0
100
AcDbSpline
62
7
6
CONTINUOUS
70
0
71
3
72
8
73
4
74
2
42
0.0000001000
43
0.0000001000
44
0.0000000001
40
0.0000000000
40
0.0000000000
40
0.0000000000
40
0.0000000000
40
1.0000000000
40
1.0000000000
40
1.0000000000
40
1.0000000000
10
88.1866401428
20
107.9255167086
30
0.0000000000
10
88.1996106487
20
107.9117011200
30
0.0000000000
10
88.2129655882
20
107.8982461618
30
0.0000000000
10
88.2266816423
20
107.8851703121
30
0.0000000000
11
88.1866401428
21
107.9255167086
31
0.0000000000
11
88.2266816423
21
107.8851703121
31
0.0000000000
0
SPLINE
5
44F
100
AcDbEntity
8
0
100
AcDbSpline
62
7
6
CONTINUOUS
70
0
71
3
72
8
73
4
74
2
42
0.0000001000
43
0.0000001000
44
0.0000000001
40
0.0000000000
40
0.0000000000
40
0.0000000000
40
0.0000000000
40
1.0000000000
40
1.0000000000
40
1.0000000000
40
1.0000000000
10
88.2266816423
20
107.8851703121
30
0.0000000000
10
88.2349781509
20
107.8772610477
30
0.0000000000
10
88.2434067822
20
107.8694904895
30
0.0000000000
10
88.2519623754
20
107.8618627270
30
0.0000000000
11
88.2266816423
21
107.8851703121
31
0.0000000000
11
88.2519623754
21
107.8618627270
31
0.0000000000
0
SPLINE
5
450
100
AcDbEntity
8
0
100
AcDbSpline
62
7
6
CONTINUOUS
70
0
71
3
72
8
73
4
74
2
42
0.0000001000
43
0.0000001000
44
0.0000000001
40
0.0000000000
40
0.0000000000
40
0.0000000000
40
0.0000000000
40
1.0000000000
40
1.0000000000
40
1.0000000000
40
1.0000000000
10
88.2519623754
20
107.8618627270
30
0.0000000000
10
88.2765630778
20
107.8399299038
30
0.0000000000
10
88.3022134883
20
107.8191776993
30
0.0000000000
10
88.3287909202
20
107.7997033329
30
0.0000000000
11
88.2519623754
21
107.8618627270
31
0.0000000000
11
88.3287909202
21
107.7997033329
31
0.0000000000
0
SPLINE
5
451
100
AcDbEntity
8
0
100
AcDbSpline
62
7
6
CONTINUOUS
70
0
71
3
72
10
73
6
74
4
42
0.0000001000
43
0.0000001000
44
0.0000000001
40
0.0000000000
40
0.0000000000
40
0.0000000000
40
0.0000000000
40
0.4299047624
40
0.7987704665
40
1.0000000000
40
1.0000000000
40
1.0000000000
40
1.0000000000
10
88.3287909202
20
107.7997033329
30
0.0000000000
10
88.3854088753
20
107.7582170519
30
0.0000000000
10
88.4984226831
20
107.6919095928
30
0.0000000000
10
88.6519862595
20
107.6355424586
30
0.0000000000
10
88.7421850436
20
107.6129356966
30
0.0000000000
10
88.7742266582
20
107.6059025441
30
0.0000000000
11
88.3287909202
21
107.7997033329
31
0.0000000000
11
88.5098535634
21
107.6930076447
31
0.0000000000
11
88.6788396906
21
107.6300820460
31
0.0000000000
11
88.7742266582
21
107.6059025441
31
0.0000000000
0
SPLINE
5
452
100
AcDbEntity
8
0
100
AcDbSpline
62
7
6
CONTINUOUS
70
0
71
3
72
10
73
6
74
4
42
0.0000001000
43
0.0000001000
44
0.0000000001
40
0.0000000000
40
0.0000000000
40
0.0000000000
40
0.0000000000
40
0.1956309621
40
0.5687368118
40
1.0000000000
40
1.0000000000
40
1.0000000000
40
1.0000000000
10
133.2634910281
20
107.6059186073
30
0.0000000000
10
133.2893347809
20
107.6115924416
30
0.0000000000
10
133.3640802508
20
107.6298789843
30
0.0000000000
10
133.4925561959
20
107.6730949648
30
0.0000000000
10
133.5899862477
20
107.7225013399
30
0.0000000000
10
133.6396807067
20
107.7531492855
30
0.0000000000
11
133.2634910281
21
107.6059186073
31
0.0000000000
11
133.3405574952
21
107.6249171074
31
0.0000000000
11
133.4838123703
21
107.6737325501
31
0.0000000000
11
133.6396807067
21
107.7531492855
31
0.0000000000
0
SPLINE
5
453
100
AcDbEntity
8
0
100
AcDbSpline
62
7
6
CONTINUOUS
70
0
71
3
72
8
73
4
74
2
42
0.0000001000
43
0.0000001000
44
0.0000000001
40
0.0000000000
40
0.0000000000
40
0.0000000000
40
0.0000000000
40
1.0000000000
40
1.0000000000
40
1.0000000000
40
1.0000000000
10
133.6396807067
20
107.7531492855
30
0.0000000000
10
133.6930183783
20
107.7860441008
30
0.0000000000
10
133.7434268022
20
107.8237297038
30
0.0000000000
10
133.7899892831
20
107.8657064886
30
0.0000000000
11
133.6396807067
21
107.7531492855
31
0.0000000000
11
133.7899892831
21
107.8657064886
31
0.0000000000
0
SPLINE
5
454
100
AcDbEntity
8
0
100
AcDbSpline
62
7
6
CONTINUOUS
70
0
71
3
72
8
73
4
74
2
42
0.0000001000
43
0.0000001000
44
0.0000000001
40
0.0000000000
40
0.0000000000
40
0.0000000000
40
0.0000000000
40
1.0000000000
40
1.0000000000
40
1.0000000000
40
1.0000000000
10
133.7899892831
20
107.8657064886
30
0.0000000000
10
133.7920750184
20
107.8675868107
30
0.0000000000
10
133.7941530366
20
107.8694757432
30
0.0000000000
10
133.7962232555
20
107.8713732412
30
0.0000000000
11
133.7899892831
21
107.8657064886
31
0.0000000000
11
133.7962232555
21
107.8713732412
31
0.0000000000
0
SPLINE
5
455
100
AcDbEntity
8
0
100
AcDbSpline
62
7
6
CONTINUOUS
70
0
71
3
72
8
73
4
74
2
42
0.0000001000
43
0.0000001000
44
0.0000000001
40
0.0000000000
40
0.0000000000
40
0.0000000000
40
0.0000000000
40
1.0000000000
40
1.0000000000
40
1.0000000000
40
1.0000000000
10
133.7962232555
20
107.8713732412
30
0.0000000000
10
133.8007128118
20
107.8754882283
30
0.0000000000
10
133.8051656875
20
107.8796434988
30
0.0000000000
10
133.8095811880
20
107.8838383360
30
0.0000000000
11
133.7962232555
21
107.8713732412
31
0.0000000000
11
133.8095811880
21
107.8838383360
31
0.0000000000
0
ENDSEC
0
SECTION
2
OBJECTS
0
DICTIONARY
5
456
100
AcDbDictionary
3
ACAD_GROUP
350
457
3
ACAD_MLINESTYLE
350
458
0
DICTIONARY
5
457
102
{ACAD_REACTORS
330
456
102
}
100
AcDbDictionary
0
DICTIONARY
5
458
102
{ACAD_REACTORS
330
456
102
}
100
AcDbDictionary
3
STANDARD
350
459
0
MLINESTYLE
5
459
102
{ACAD_REACTORS
330
458
102
}
100
AcDbMlineStyle
2
STANDARD
70
0
3

62
256
51
90.0
52
90.0
71
2
49
0.5
62
256
6
BYLAYER
49
-0.5
62
256
6
BYLAYER
0
ENDSEC
0
EOF
